Strutter, Kiss (tablatura) (ver 2)

Autor: JUAMPIIX | 23647 visualizaciones



Es mi primer tablatura asique espero que les guste :D



E--------------------------------------------------
B--------------------------------------------------
G--------------------------------------------------
D--------------------------------------------------
A---7-7-7--11--7--11--7--------14-14--16-16-14-----
E---9-9-9--9---9--9---9--------12-12--12-12-12-----


E--------------------------------------------------
B--------------------------------------------------
G--------------------------------------------------
D--------------------------------------------------
A---7-7-7-9-7-9-7--------5-5-5-7-5-7-5-------------
E---5-5-5-5-5-5-5--------3-3-3-3-3-3-3-------------





Comentarios del colaborador: Fuente: Yo y mi guitarra :B Saludos desde el sur de argentina :D!!

Calificar esta versión:
Aviso: Este fichero es trabajo propio de su transcriptor y representa su interpretación personal de la canción. El material contenido en esta página es para exclusivo uso privado, por lo que se prohibe su reproducción o retransmisión, así como su uso para fines comerciales.
Más versiones de Strutter, Kiss
Strutter
acordes
Strutter
tablatura
Strutter (ver 2)
tablatura
Descubre más canciones de Kiss