Strutter, Kiss (tablatura)

Autor: hacha | 44975 visualizaciones



 ------------------------------------------------
------------------------------------------------
------------------------------------------------
--9------------------------------------7---9--
--9--------5---5---7---5---5---5---5---5--
--7---0---3---3---3---3---3---3------------

-----------------------------------------------
---------------8---8---8---8---8---7-------
---------------7---7---7---7---7---7-------
-7---7---7---9---9---9---9---9---7-------
-5---5---5------------------------------------
------------------------------------------------

------------------------------------------------
------------------------------------------------
------------------------------------------------
--9------------------------------------7---9--
--9--------5---5---7---5---5---5---5---5--
--7---0---3---3---3---3---3---3------------

------------------------------------------------
------------------------------------------------
------------------------------------------------
-7---7---7----2---2--4---2---4---2---------
-5---5---5----0---0--0---0---0---0----------
------------------------------------------------

chorus

-------------------------------------
-------------------------------------
--4---4---4------------------------
--4---4---4---------5---5---5----
--2---2---2---------5---5---5----
----------------------3---3---3----

----------------------------------
----------------------------------
---4---4---4--------------------
---4---4---4------5---5---5---
---2---2---2------5---5---5---
--------------------3---3---3---

--------------------------------------------------------
--------------------------------------------------------
--------------------------------------------------------
------4-----4-------------4----4------------4----4--
--0--2-----2--------0----2----2------0----2----2--
--------------------------------------------------------

----------------------------------------------------
-----------------------------------------------------
-------------------4---4------7----9--------------
-----------0------2---2------7----9---------------
-----2------------------------5----7---0----------
-----------------------------------------------2----


---------------------------------------------------------
---------------------------------------------------------
---------------------------------------------------------
------4-----4-------------4----4------------4----4---
--0--2-----2--------0----2----2------0----2----2---
---------------------------------------------------------

----------------------------------------------------------
----------------------------------3------3---------------
------------------4---4----------0------2---2----------
----------0------2---2----------0------0---2-----9----
----2-----------------------------------------0-----9---
-----------------------------3-----------------------7---

outro

---------------------------------------------
---------3---------3------------------------
---------0---------2-----2-----------------
---------0---------0-----2--------9-------
--------------------------0--------9--------
--3--------------------------------7-------- 





Calificar esta versión:
Aviso: Este fichero es trabajo propio de su transcriptor y representa su interpretación personal de la canción. El material contenido en esta página es para exclusivo uso privado, por lo que se prohibe su reproducción o retransmisión, así como su uso para fines comerciales.
Más versiones de Strutter, Kiss
Strutter
acordes
Strutter
tablatura
Strutter (ver 2)
tablatura
Descubre más canciones de Kiss