Lambada, Ketama (tablatura) (ver 2)

Autor: Anónimo | 20807 visualizaciones



hola soy el señor poweR y ps esta es mi
primera tablatura y supongo hay errores,
porfavor corregir. gracias

este es la melodia de la cancion para los que la
necesiten y/o esten empezando(como yo)

Dm   Bb C F

e]------3h5-3--------------------------]
B]------------6-5-3-3-6-5-3------------]
G]--------------------------5s7--------]
D]------------------------------7-5h7v-]
A]-------------------------------------]
E]-------------------------------------]


Dm   Bb C F

e]------3h5-3--------------------------]
B]------------6-5-3-3-6-5-3------------]
G]--------------------------5s7--------]
D]------------------------------7-5h7v-]
A]-------------------------------------]
E]-------------------------------------]


Gm      C   Dm

e]------3-3-3----------3h5-3--------------------------]
B]------------6------6-------6---3-6-5-3------3---3v--]
G]---------------3-3-----------3---------5-5-5--5-----]
D]----------------------------------------------------]
A]----------------------------------------------------]
E]----------------------------------------------------]


Gm      C   Dm

e]---3-3-3----------3h5-3------------------------------]
B]---------6------6-------6---3-6-5-3------3---6h5h3v--]
G]------------3-3-----------3---------5-5-5--5---------]
D]-----------------------------------------------------]
A]-----------------------------------------------------]
E]-----------------------------------------------------]




eso es todo lo otro que hace el acordeon en
la cancion es facil de sacar...
espero ser de gran ayuda.





Calificar esta versión:
Aviso: Este fichero es trabajo propio de su transcriptor y representa su interpretación personal de la canción. El material contenido en esta página es para exclusivo uso privado, por lo que se prohibe su reproducción o retransmisión, así como su uso para fines comerciales.
Más versiones de Lambada, Ketama
Lambada
acordes
Lambada (ver 2)
acordes
Lambada
tablatura
Lambada (ver 2)
tablatura
Lambada
teclado
Descubre más canciones de Ketama