Lambada, Ketama (tablatura)

Autor: Anónimo | 36397 visualizaciones

bueno pues aqui esta el requinto con las notas de lambada


  Dm                  A#               C7         F       A

e -5----3--1--0-----------1--0------------------------------------
b ---------------3----3-----------3--1--3-------------------------
g ------------------------------------------2--0--2---------------
d ----------------------------------------------------------------
a ----------------------------------------------------------------
e ----------------------------------------------------------------


  G                    C                  D 

e -3--3--1-------------5--3--1--------1--0--0---------------------
b -----------------3---------------3-----------3--1--1--3---------
g ----------3---3---------------3--------------------------2--0--2
d ----------------------------------------------------------------
a ----------------------------------------------------------------
e ----------------------------------------------------------------


   D                         F

e ---1-1-1-1-------1-1-1--------5-5-5-5------5-5-5---------------
b ---3-3-3-3-------3-3-3--------6-6-6-6------6-6-6----------------
g -2------------2-------------5------------5----------------------
d ----------------------------------------------------------------
a ----------------------------------------------------------------
e ----------------------------------------------------------------

esta ultima parte se repite varias veces al final  pero todo esta tablatura
es toda la cancion y obviamete se repiten en algunas partes


bueno ps bye

se cuidan
Calificar esta versión:
Aviso: Este fichero es trabajo propio de su transcriptor y representa su interpretación personal de la canción. El material contenido en esta página es para exclusivo uso privado, por lo que se prohibe su reproducción o retransmisión, así como su uso para fines comerciales.
Más versiones de Lambada, Ketama
Lambada
acordes
Lambada (ver 2)
acordes
Lambada
tablatura
Lambada (ver 2)
tablatura
Lambada
teclado
Descubre más canciones de Ketama