Angel, Judas Priest (tablatura) (ver 2)

Autor: darrel | 15274 visualizaciones

Intro: Bm7 Bm7 G A ? (5X)
Guitarra 1  RIFF 1
e|-----2------------------------------------2-----------------------------|
B|-----2h3-3--2-3---------------------------2h3-3--5-3--------------------|
G|---------------------0---------2-------------------------0---------2----|
D|---4---------------0---0-----2---2------4--------------0---0-----2---2--|    6,5x
A|-2------------------------0-----------2------------------------0--------|
E|-----------------3-----------------------------------3------------------|
                                     |
Guitarra 2  RIFF 2
e|-9-10------9-10-12--10-9--------------------------------------------------|
B|------12-----------------12-10------- 12-12-------------------------------|
G|-------------------------------9-9\11-11------9-11-12--11-9-7-6-----------|
D|----------------------------------------------------------------9p7-9-----|
A|--------------------------------------------------------------------------|
E|--------------------------------------------------------------------------|
Verso:
Bm7   G  A             Bm7            G
Angel -  put sad wings around me now
   A                 Bm7                  G      A     Bm7   G  A
Protect me from this world of sin So that we can rise again
   Bm7   G A               Bm7         G
Oh angel - we can find our way somehow
  A               Bm7                 G           A    Bm7   G  A
Escaping from the world we're in to a place where we began

Refrão:
      G          Bm
And I know we'll find a better place and
G        Bm
peace of mind just tell me that it's
G       Em                 F#
all you want - for you and me
F#
Angel won't you set me free

Interlúdio: Bm7 Bm7 G A ? (2X)
Guitarra 1  RIFF 1
e|-----2------------------------------------2-----------------------------|
B|-----2h3-3--2-3---------------------------2h3-3--5-3--------------------|
G|---------------------0---------2-------------------------0---------2----|
D|---4---------------0---0-----2---2------4--------------0---0-----2---2--|   
A|-2------------------------0-----------2------------------------0--------|
E|-----------------3-----------------------------------3------------------|
                                     |
Guitarra 2  RIFF 2
e|-9-10------9-10-12--10-9--------------------------------------------------|
B|------12-----------------12-10------- 12-12-------------------------------|
G|-------------------------------9-9\11-11------9-11-12--11-9-7-6-----------|
D|----------------------------------------------------------------9p7-9-----|
A|--------------------------------------------------------------------------|
E|--------------------------------------------------------------------------|

Verso:
Bm7   G   A               Bm7           G
Angel   remember how we'd chase the sun
A                Bm7                   G         A      Bm7  G  A
Then reaching for the stars at night as our lives had just begun

(Refrão) ? (1X)

       G        Bm                      G         Bm
When I close my eyes I hear your velvet wings and cry
                      G    Em                  F#
I'm waiting here with open arms - oh can't you see
F#
Angel shine your light on me

(Solo) - Bm G A ? (4X)
Guitarra 1  RIFF 1
e|-----2------------------------------------2-----------------------------|
B|-----2h3-3--2-3---------------------------2h3-3--5-3--------------------|
G|---------------------0---------2-------------------------0---------2----|
D|---4---------------0---0-----2---2------4--------------0---0-----2---2--|    
A|-2------------------------0-----------2------------------------0--------|
E|-----------------3-----------------------------------3------------------|
                                     |
Guitarra 2  RIFF 2 Distorcionada
e|-9-10------9-10-12--10-9-------------------------9-10-12-10-17b-17-15-14-------|
B|------12 ~-----------------12-10-------11h12-12-------------------------------|
G|-------------------------------9-9\11-----------------------------------------|
D|------------------------------------------------------------------------------|
A|------------------------------------------------------------------------------|
E|------------------------------------------------------------------------------|
e|-14-15-14-------------------------------------------------------------------------|
B|---------14-15~/--\17b-17-14h15p14-12/---------------------------------------------|
G|-----------------------------------------------------9-12-11--12-11-9--9----------|
D|--------------------------------------\9~-9-11-12--12-----------------9-----------|
A|----------------------------------------------------------------------------------|
E|----------------------------------------------------------------------------------|


Ponte:
Em             F#
   angel we'll meet once more I'll pray
Bm             G
   When all my sins are washed away

Edim7          F#
   Hold me inside your wings and
Bm Bm/A G
stay
F#                 Bm   G
Angel take me far away
Distorcionada, solo saquen el ricmo (empiezan exactamente cuando termine el primer acorde)
e|---------------------------------------|
B|---------------------------------------|
G|---------------------------------------|
D|-2\9--9---5---7-------9--5--7-----------|
A|-2\9--9---5---7-------9--5--7-----------|
E|------7---3---5-------7--3--5-----------|
Outro:
A              Bm
Put sad wings around me now
G             A    Bm    G
Angel take me far away
A              Bm
Put sad wings around me now
        G      A    Bm      G
So that we can rise again
A              Bm
Put sad wings around me now
G             A    Bm    G
Angel take me far away
A              Bm
Put sad wings around me now
        G      A     G       A  Bm
So that we can rise again

Comentarios del colaborador: SUERTE Y ESCUCHENLA BIEN, LLEVEN LOS TEMPOS

Calificar esta versión:
Aviso: Este fichero es trabajo propio de su transcriptor y representa su interpretación personal de la canción. El material contenido en esta página es para exclusivo uso privado, por lo que se prohibe su reproducción o retransmisión, así como su uso para fines comerciales.
Más versiones de Angel, Judas Priest
Angel
acordes
Angel
tablatura
Angel (ver 2)
tablatura
Descubre más canciones de Judas Priest