Angel, Judas Priest (tablatura)

Autor: death_blackman | 17422 visualizaciones

angel

Gtr.1 Intro/Verse 
|------------------------------------| 
|-----3-3--2-3-----------------------| 
|-----4-4-----------0-------2--------| 
|---4-4-4-------------0---2---2------| 
|-2---------------2-----0------------| 
|---------------3--------------------| 
 
|------------------------------------| 
|-----3-3--5-3-----------------------| 
|-----4-4-----------0-------2--------| 
|---4-4-4-------------0---2---2*-----| 
|-2---------------2-----0------------| 
|---------------3--------------------| 
 
|-9-10-7--9-10-12-10-9-7-5-------7-7-| 
|--------------------------5-5/7-----| 
|------------------------------------| 
|------------------------------------| 
|------------------------------------| 
|------------------------------------| 
 
|------------------------------------| 
|-5-7-8-7-5--------------------------| 
|-----------7-6-4-4------------------| 
|----------------7-------------------| 
|------------------------------------| 
|------------------------------------| 
 
|--------------------------------------|--- / 
|---------------------3-----3------3-------- /  
|-------4----4-----------4-----4-----4-|  - / x2 
|-----5---5----5-----------4-----4-----| --- / 
|---5-------5----5--2------------------|---- / 
|-3----------------------------------------- / 
 
|----------------------------------------------------| 
|----------------------------------------------------| 
|-------4-----4----------0-----0---------3-----3-----| 
|-----5---5-----5----------2-----2---------4-----4---| 
|---5-------5-----5----2-----2-----2---4-----4-----4-| 
  |-3------------------0---------------2---------------|

|-9-10-7--9-10-12-10-9-7-5-------7-7-| 
|--------------------------5-5/7-----| 
|------------------------------------| 
|------------------------------------| 
|------------------------------------| 
|------------------------------------| 
 
|-9-10-12-10-17--17-15-14--14-15-14--------------------| 
|----------------------------------14-15--7/17-17b-----| 
|------------------------------------------------------| 
|------------------------------------------------------| 
|------------------------------------------------------| 
|------------------------------------------------------| 

----------------------------------------------------| 
-17-14h15p14-12-------------------------------------| 
-------------------------------9-12-11--12-11-9---9-| 
----------------3/9-9-11-12-12------------------9---| 
----------------------------------------------------| 
----------------------------------------------------| 

|----------------------------------------------------| 
|----------------------------------------------------| 
|----------------------------------------------------| 
|----------------------------------------------------| 
|-------------7--------------------------------------| 
|--7--9----10-----9---10-7---------------------------| 
 
|----------------------------------------------------| 
|--12---14b14b---16b16b----12------------------------| 
|----------------------------------------------------| 
|----------------------------------------------------| 
|----------------------------------------------------| 
|----------------------------------------------------| 
 
|-------------------2---| 
|-------------------3---| 
|------0-------2----4---| 
|--------0---2---2--4---| 
|----2-----0--------2---| 
  |--3--------------------|
Calificar esta versión:
Aviso: Este fichero es trabajo propio de su transcriptor y representa su interpretación personal de la canción. El material contenido en esta página es para exclusivo uso privado, por lo que se prohibe su reproducción o retransmisión, así como su uso para fines comerciales.
Más versiones de Angel, Judas Priest
Angel
acordes
Angel
tablatura
Angel (ver 2)
tablatura
Descubre más canciones de Judas Priest