Es Por Ti, Juanes (bajo) (ver 2)

Autor: Anónimo | 41636 visualizaciones

G-------------------------------------------------
D-------------------------------------------------
A---------11-11-11----11-11-11-----9-9-9----9-9-9-
E-----9------------9-9---------9-7--------7-------

G--------------------------------------
D--------------------------------------
A-----7-7-7----7-7-7----9-9-9----9-9-9-
E-7-5--------5------5-7--------7-------

se repite

tus ojos me....

G---------------------------------------------------
D---------------------------------------------------
A----7-7-7----7-7-7---------------------------4-4-4-
E--5--------5-------0--7-7-7--0--7-7-7---0--2-------

G---------------------
D---------------------
A----4-4-4----9-9-9---
E--2--------7--------7

CORO

G-------------------------------------------------
D-------------------------------------------------
A-------------------------------------------------
E--5--0-0-5-5--0-0-5-0--7-7-0-0-0-7-0-7-0-5--0-0--

G-------------------------------------------------
D-------------------------------------------------
A-------------------------------------------------
E--5--0-0-5-5--0-0-5-0--7-7-0-0-0-7-0-7-0-5--0-0--

vuelve y se repite la primera parte, y eso es todo.
escuchenla, y si la tocan en guitarra comparenla que 
es lo mismo.
espero les guste, si hay alguna duda escribanme

Fuente original: LaCuerda
Colaborador original: andres felipe molina [anfelmo@hotmail.com]
Calificar esta versión:
Aviso: Este fichero es trabajo propio de su transcriptor y representa su interpretación personal de la canción. El material contenido en esta página es para exclusivo uso privado, por lo que se prohibe su reproducción o retransmisión, así como su uso para fines comerciales.
Más versiones de Es Por Ti, Juanes
Es Por Ti
acordes
Es Por Ti (ver 2)
acordes
Es Por Ti (ver 3)
acordes
Es Por Ti (ver 4)
acordes
Es Por Ti
tablatura
Es Por Ti
bajo
Es Por Ti (ver 2)
bajo
Descubre más canciones de Juanes