Es Por Ti, Juanes (bajo)

Autor: Anónimo | 35308 visualizaciones

QUE ONDA, BUENO AHI LES VA ESTA TAB PARA BAJO VIENE CON TODOS 
LOS ARREGLOS VA DEDICADA PARA KARLA GABRIELA, LA CHAVA MAS 
GUAPA QUE HE VISTO EN MI VIDA.


Intro/Verso

Cada vez que me levanto...

G--------------------------------------
D--------6--6--------6--4--------------
A--4--4--------4--4--------------------
E--------------------------------------

G--------------------------------------
D--------4--4--------4--2--------------
A--2--2--------2--2--------------------
E--------------------------------------

G--------------------------------------
D--------2--2-------2--0---------------
A--0--0--------0--0--------------------
E--------------------------------------

G--------------------------------------
D--------4--4--------4--2--------------
A--2--2--------2--2--------------------
E--------------------------------------

G--------------------------------------
D--------2--2-------2--0---------------
A--0--0--------0--0--------------------
E--------------------------------------

G--------------------------------------
D--------4--4--------4--2--------------
A--2--2--------2--2--------------------
E--------------------------------------

Pre-Coro: Tus ojos, me llevan lentamente...

G--------------------------------------
D--------------------7-----------------
A-------7--7------7--------------------
E--5--5------5--5----------------------

G--------------------------------------
D--------9--9-------9--7---------------
A--7--7--------7--7--------------------
E--------------------------------------


G--------------------------------------
D--------11--11-------11--9------------
A--9--9----------9--9------------------
E--------------------------------------

G--------------------------------------
D--------9--9--------------------------
A--7--7--------7-----------------------
E--------------------------------------


CORO: Y Es por ti que late mi corazón...

G--------------------------------------
D--------------------7-----------------
A-------7--7------7--------------------
E--5--5------5--5----------------------

G--------------------------------------
D--------9--9-------9--7---------------
A--7--7--------7--7--------------------
E--------------------------------------

G--------------------------------------
D--------------------7-----------------
A-------7--7------7--------------------
E--5--5------5--5----------------------

G--------------------------------------
D--------9--9-------9--7---------------
A--7--7--------7--7--------------------
E--------------------------------------


Intro/Verso X1
Pre-coro    X1	
Coro        X1

Interlude  (Es lo mismo que el intro y el verso)

Fuente original: LaCuerda
Colaborador original: Marco A. Jiménez Manrique [marco_anthempart2@yahoo.com.mx]
Calificar esta versión:
Aviso: Este fichero es trabajo propio de su transcriptor y representa su interpretación personal de la canción. El material contenido en esta página es para exclusivo uso privado, por lo que se prohibe su reproducción o retransmisión, así como su uso para fines comerciales.
Más versiones de Es Por Ti, Juanes
Es Por Ti
acordes
Es Por Ti (ver 2)
acordes
Es Por Ti (ver 3)
acordes
Es Por Ti (ver 4)
acordes
Es Por Ti
tablatura
Es Por Ti
bajo
Es Por Ti (ver 2)
bajo
Descubre más canciones de Juanes