Abrazame Muy Fuerte, Juan Gabriel (tablatura)

Autor: Anónimo | 30462 visualizaciones

Esta tablatura, es la melodia de esta bellisima cancion, espero que
les guste. Quiero dedicarsela a el amor de mi vida, para 
Elisa Velazquez Felix... Te amo mucho...


E-------------------------------------------------------------------
A-------------------------------------------------------------------
D-------------------------------------------------------------------
G-------------------------------------------------------------------
B---------------------7-5-3---1-3-5--5-5-5-5-5-5-5-5-5-5-5-5-5-3----
E-3-3-3-3-3-3-3-3-3-5-----------------------------------------------

E-------------------------------------------------------------------
A-------------------------------------------------------------------
D-------------------------------------------------------------------
G-------------------------------------------------------------------
B-3-3-1-0-1---------------------------------------------------------
E-----------3-2--2-3-3-2-3-2-3-2-0--0-0-3-0-3-0-3-0-3-0-3-0---------


E-------------------------------------------------------------------
A-------------------------------------------------------------------
D-------------------------------------------------------------------
G-------------------------------------------------------------------
B---------------------7-5-3----3-5---5---5---5-----5------5-3-------
E-3-3-3-3-3-3-3-3-3-5--------------3---3---3---3-3---3-3------------


E-------------------------------------------------------------------
A-------------------------------------------------------------------
D-------------------------------------------------------------------
G-------------------------------------------------------------------
B-3-3-1-0-1-1------------------------------3-5----------------------
E-------------3-2--2-3-5-3-5-3-5-3-7-5-3-0-----5-3-3----------------

E-------------------------------------------------------------------
A-------------------------------------------------------------------
D-------------------------------------------------------------------
G-------------------------------------------------------------------
B-----------------------------------------------------------3-------
E-3-3-3-3-3-5-7-5-3-3-5-7-5-0---5-5-3-5-3-5-3-5-3-5-3-5-5-3---------

E-------------------------------------------------------------------
A-------------------------------------------------------------------
D-------------------------------------------------------------------
G-------------------------------------------------------------------
B-------------------------------------------------------------5-----
E-7-7-5-7-5-7-5-7-5-3-3-5-7-5-0---5-5-3-5-3-5-3-5-3-5-3-5-5-3-------

E-------------------------------------------------------------------
A-------------------------------------------------------------------
D-------------------------------------------------------------------
G-------------------------------------------------------------------
B-------------------------------3-5---------------------------------
E-3-3-3-3-3-3-3-3-3-3-3-5-7-5-0-----5-3-3---3-3-3-3-3-3-2-----------

E-------------------------------------------------------------------
A-------------------------------------------------------------------
D-------------------------------------------------------------------
G-------------------------------------------------------------------
B---5--5--5--5--5--5----5-3---3-3-1-0-1-----------------------------
E-3--3--3--3--3--3--3-3-----------------3-3-2-----------------------

E-------------------------------------------------------------------
A-------------------------------------------------------------------
D-------------------------------------------------------------------
G-------------------------------------------------------------------
B------------------------------------------------------------------
E-2-3-5-3-5-3-5-3-3-7---7-5-7-5-3-7-5-3-7-5-3-7-7-5-----------------

E-------------------------------------------------------------------
A-------------------------------------------------------------------
D-------------------------------------------------------------------
G-------------------------------------------------------------------
B-------------------------------------------------------------------
E-7-7-5-7-5-7-5-7-5---5-5-3-5-3-5-3-5-3-5-3-5-3-5-7-----------------

E-------------------------------------------------------------------
A-------------------------------------------------------------------
D-------------------------------------------------------------------
G-------------------------------------------------------------------
B-------------------------------------------------------------------
E-7-7-5-7-5-7-5-7-5-3-3-5-7-5-0----5-5-3-5-3-5-3-5-3-5-3-5-3-5-7----

E-------------------------------------------------------------------
A-------------------------------------------------------------------
D-------------------------------------------------------------------
G-------------------------------------------------------------------
B-------------------------------------------------------------------
E-7-7-7-7-7-15-14-15-14-14-12-12-10-10-8----------------------------

E-------------------------------------------------------------------
A-------------------------------------------------------------------
D-------------------------------------------------------------------
G-------------------------------------------------------------------
B-------------------------------------------------------------------
E-14-14-12-12-10-10-10-14-12-12-10-10-8-8-7-------------------------

E-------------------------------------------------------------------
A-------------------------------------------------------------------
D-------------------------------------------------------------------
G-------------------------------------------------------------------
B-------------------------------------------------------------------
E-15-15-14-15-14-15-14-15-14-15-14-15-14-15-12----------------------

E-------------------------------------------------------------------
A-------------------------------------------------------------------
D-------------------------------------------------------------------
G-------------------------------------------------------------------
B-------------------------------------------------------------------
E-17-17-15-15-14-14-12-12-10-10-10-14-8-8-7-------------------------

E-------------------------------------------------------------------
A-------------------------------------------------------------------
D-------------------------------------------------------------------
G-------------------------------------------------------------------
B-------------------------------------------------------------------
E-14-15-14-15-14-15-14-15-14-15-14-15-14-12-------------------------			

E-------------------------------------------------------------------
A-------------------------------------------------------------------
D-------------------------------------------------------------------
G-------------------------------------------------------------------
B-------------------------------------------------------------------
E-17-17-15-15-14-14-12-12-10-10-10-12-14-12-10----------------------

E-------------------------------------------------------------------
A-------------------------------------------------------------------
D-------------------------------------------------------------------
G-------------------------------------------------------------------
B-------------------------------------------------------------------
E-14-15-14-15-14-15-12-15-12-12-12-15-12-12-15-12-------------------	

E-------------------------------------------------------------------
A-------------------------------------------------------------------
D-------------------------------------------------------------------
G-------------------------------------------------------------------
B-------------------------------------------------------------------
E-17-17-15-15-14-14-12-12-10-10-12-14-15-12-10-----------------------

E-------------------------------------------------------------------
A-------------------------------------------------------------------
D-------------------------------------------------------------------
G-------------------------------------------------------------------
B-------------------------------------------------------------------
E-15-15-14-15-14-15-14-15-12-12-12-14-15-15-10----------------------

E-------------------------------------------------------------------
A-------------------------------------------------------------------
D-------------------------------------------------------------------
G-------------------------------------------------------------------
B-------------------------------------------------------------------
E-17-17-15-15-14-14-12-12-10-10-12-14-15-12-10---------------------

E-------------------------------------------------------------------
A-------------------------------------------------------------------
D-------------------------------------------------------------------
G-------------------------------------------------------------------
B-------------------------------------------------------------------
E-15-14-15-14-15-14-15-12-15-12-12-12-15-12-12-15-12----------------	

E-------------------------------------------------------------------
A-------------------------------------------------------------------
D-------------------------------------------------------------------
G-------------------------------------------------------------------
B-------------------------------------------------------------------
E--17-17-15-15-14-14-12-12-10-10-12-14-15-12-10---------------------

E-------------------------------------------------------------------
A-------------------------------------------------------------------
D-------------------------------------------------------------------
G-------------------------------------------------------------------
B-------------------------------------------------------------------
E-14-15-14-15-14-15-14-15-12-12-14-15-14-12-15-12-------------------

E-------------------------------------------------------------------
A-------------------------------------------------------------------
D-------------------------------------------------------------------
G-------------------------------------------------------------------
B-------------------------------------------------------------------
E-17-17-15-15-14-14-12-12-------------------------------------------



Dudas o comentarios seran bien recibidos
Pd. TE AMO ELI
Calificar esta versión:
Aviso: Este fichero es trabajo propio de su transcriptor y representa su interpretación personal de la canción. El material contenido en esta página es para exclusivo uso privado, por lo que se prohibe su reproducción o retransmisión, así como su uso para fines comerciales.
Más versiones de Abrazame Muy Fuerte, Juan Gabriel
Abrazame Muy Fuerte
acordes
Abrazame Muy Fuerte
tablatura
Abrazame Muy Fuerte
bajo
Descubre más canciones de Juan Gabriel