Abrazame Muy Fuerte, Juan Gabriel (bajo)

Autor: Anónimo | 27270 visualizaciones

La afinacion del Bajo es normal (E A D G)
Empezamos!!!

El Bajo entra en el coro...
  Q=70
 4/4
    H    H      H    H      H    H      H    H
|-----------|-----------|-----------|-----------|
|-----------|-0----0----|-----------|-2----2----|
|-0----0----|-----------|------2----|-----------|
|-----------|-----------|-3---------|-----------|


  Q.   E H      H    H      Q.   E S S S S S S S S   H    H
|-------------|-----------|--------4-2-----0-------|-----------|
|-------------|-0----0----|--------------2---4-----|-2----2----|
|-0------0----|-----------|----------------------2-|-----------|
|-------------|-----------|-3----------------------|-----------|


  Q.   E Q.   E   H    H      H    Q  E E   H    H
|---------------|-----------|-------------|-----------|
|---------------|-0----0----|-------------|-2----2----|
|-0------0------|-----------|------2--2---|-----------|
|---------------|-----------|-3-----------|-----------|


  H    H      H    Q.   E   Q.   E Q  E E   H    H
|-----------|-------------|---------------|-----------|
|-----------|-0----0------|---------------|-2----2----|
|-0----0----|-------------|-----------2---|-----------|
|-----------|-------------|-3------2------|-----------|


  H    Q.   E   H    Q.   E   H    Q  Q    H    H
|-------------|-------------|------------|-----------|
|-------------|-0----0------|------------|-2----2----|
|-0----0------|-------------|---------2--|-----------|
|-------------|-------------|-3----2-----|-----------|


  H    H      H    H      Q.   E Q  Q    H    H
|-----------|-----------|--------------|-----------|
|-----------|-0----0----|--------------|-2----2----|
|-0----0----|-----------|-----------2--|-----------|
|-----------|-----------|-3------2-----|-----------|


  H    H      H    H      H    Q  Q    H    Q.   E
|-----------|-----------|------------|-------------|
|-----------|-0----0----|------------|-2----2------|
|-0----0----|-----------|---------2--|-------------|
|-----------|-----------|-3----2-----|-------------|


  H    H      H    H      H    Q  Q    Q.   E H
|-----------|-----------|------------|-------------|
|-----------|-0----0----|------------|-2------2----|
|-0----0----|-----------|------2--2--|-------------|
|-----------|-----------|-3----------|-------------|


  Q.   E Q.   E   H    E E +Q     +S  S E Q  H
|---------------|---------------|-----------------*|
|---------------|-0------2-(2)--|-(2)-------------*|
|-0------0------|---------------|-----------------*|
|---------------|---------------|-----------------*|


FIN!!!
- BUENO AQUI ABAJO ESTA EL SIGNIFICADO DE LAS LETRAS Y LOS SIGNOS...
- ESPERO QUE LES HAYA AGRADADO Y SOBRETODO QUE LE HAYAN ENTENDIDO...
- POR SI ALGUNA RAZON NO LE ENTIENDEN PUES HECHENME UN MAIL A: sNaKePiTs@guitar.com
- SI QUIEREN ALGUNA PETICION PUES TAMBIEN HECHENME UN MAIL...
- ESTA CANCION Y OTRAS LAS TENGO EN ARCHIVOS POWERTAB, POR SI ALGUIEN LA QUIERE...
  PUES HECHENME UN MAIL PIDIENDOLAS...
- LOS VERE EN LA PROXIMA CANCION!!!...


NOTA!!!: PUEDEN UTILIZAR ESTA TAB PARA PUBLICARLA DONDE USTEDES
QUIERAN, PERO POR FAVOR LES RUEGO QUE ME DEN LOS CREDITOS COMO
TRANSCRIPTOR DE LA MISMA...GRACIAS!!!

NESTOR SADAO ARECHIGA CERVANTES (sNaKePiTs@guitar.com)


LEYENDA DE LAS NOTAS:

W = (REDONDA)     NOTA COMPLETA
H = (BLANCA)      MEDIA NOTA
Q = (NEGRA)       CUARTO DE NOTA
E = (CORCHEA)     OCTAVO DE NOTA
S = (SEMICORCHEA) DIECISEISAVA DE NOTA
T = (FUSA)        TREINTAIDOSAVA DE NOTA
X = (SEMIFUSA)    SESENTAICUATROAVA DE NOTA

a  =  ACCIACCATURA
+  =  LIGADURA
.  =  AUMENTA LA DURACION DE LA NOTA
.. =  AUMENTA LA DOBLE DE LA DURACION DE LA NOTA


LEYENDA DEL 'PENTAGRAMA'
 |  - COMPAS
||  - DOBLE COMPAS
||o - ES DONDE VA A COMENZAR CUANDO ALGO SE VA A REPETIR
o|| - ES DONDE VA A TERMINAR CUANDO ALGO SE VA A REPETIR
*|  - FIN DE LA CANCION
 :  - COMPAS LIBRE
 $  - SEGNO (AL VER ESTE SIGNO, TENEMOS QUE RETROCEDER HASTA VER EL SIGNO ANTERIOR $...)
 &  - CODA (SIGNIFICA QUE DEBES PASAR LA SIGUIENTE SIGNO &)
Calificar esta versión:
Aviso: Este fichero es trabajo propio de su transcriptor y representa su interpretación personal de la canción. El material contenido en esta página es para exclusivo uso privado, por lo que se prohibe su reproducción o retransmisión, así como su uso para fines comerciales.
Más versiones de Abrazame Muy Fuerte, Juan Gabriel
Abrazame Muy Fuerte
acordes
Abrazame Muy Fuerte
tablatura
Abrazame Muy Fuerte
bajo
Descubre más canciones de Juan Gabriel