Para Que No Me Olvides, Juan Fernando Velasco (tablatura) (ver 2)

Autor: Anónimo | 37841 visualizaciones



Me disculpan por la trascripción pasada que tenia algunos errores. 
Aprovecho para dedicar esta canción a otra mujer que por cosas del destino o 
del corazón se encuentra con otro, igual que yo, encubriendo lo que siente. 
 

                           Em   E7      
Para que, Para que no me olvides, 
            Am                    D7
te dejare mis versos escritos en el viento, 
              G     B7 
que enredará tu pelo.
                Em E7                    Am  Am/C
Y si al volver al dia, en que nos conocimos
                    Em           B7
sientes algo en el pecho amor, 
                 Em         B7
es mi voz que te llama,

                    
Para que no me olvides,               
se encargara la luna de susurrar mi nombre
de acariciarte el alma
Y si al volver al día, en que nos conocimos                          
sientes algo en el pecho amor  
es mi voz que se apaga.


CORO
E7            Am             D7
  Y si es que hoy debo partir
        G            Em                Am           B7
debo alejarme de tu amor, tendremos la eternidad
        Em    E7       Am           D7
para extrañarnos te llevaré en mi corazón
       G         Em           Am       B7
y tu una rosa me darás pero con ella moriré,
        Em
cuando la cortes.


Punteo

E|-7-7-7--------------------5-7--10-8---8-8-8-7-5----------|
B|-------8-7--7-5v--5-7-8-------------------------8-7h8-7v-|
G|---------------------------------------------------------|
D|---------------------------------------------------------|
A|---------------------------------------------------------|
E|---------------------------------------------------------|


E|----7--10-10-8-7---7-7-7---------------------5-7---10-8--|
B|-7-8--------------------8-7-7h8-7-5v----5-7-8------------|
G|---------------------------------------------------------|
D|---------------------------------------------------------|
A|---------------------------------------------------------|
E|---------------------------------------------------------|

E|---8-10---12-10-8-8-7------------------------------------|
B|----------------------8v-7h8-8-8-7h8-8-8----7-7-7---5V---|
G|---------------------------------------------------------|
D|---------------------------------------------------------|
A|---------------------------------------------------------|
E|---------------------------------------------------------|


va el CORO…


                 Em   E7      
Para que no me olvides, 
            Am                    D7
te dejare mis versos escritos en el viento, 
              G     B7
que enredará tu pelo.
                Em E7                    Am Am/C
Y si al volver al día, en que nos conocimos
                    Em           B7                 Em Em/C
sientes algo en el pecho amor, es mi voz que te llama,
               Em           B7                  Em
sientes algo en el pecho amor, es mi voz que se apaga.


ACORDES   
Am    X02210
Em    022000
Em/C  032000
Am/C  X32210
E7    020100
G     320033
D7    XX0212
B7    X21202

v= Vibrato
h= Hammer
 
Alguna duda o comentario a mi correo en Marinilla - Colombia .





Calificar esta versión:
Aviso: Este fichero es trabajo propio de su transcriptor y representa su interpretación personal de la canción. El material contenido en esta página es para exclusivo uso privado, por lo que se prohibe su reproducción o retransmisión, así como su uso para fines comerciales.
Más versiones de Para Que No Me Olvides, Juan Fernando Velasco
Para Que No Me Olvides
acordes
Para Que No Me Olvides
tablatura
Para Que No Me Olvides (ver 2)
tablatura
Descubre más canciones de Juan Fernando Velasco