Para Que No Me Olvides, Juan Fernando Velasco (tablatura)

Autor: Anónimo | 35834 visualizaciones



Estrofa (en esta estrofa se arpegia)
                           Em                   Am      C
Para que. para que no me olvides te guardaré mis versos   escritos
        D                      G    B7                   Em
en el   viento que enredara tu pelo  y si al volver al   día en que nos
    Am    C                    G          B7                 Em
conocimos  sientes algo en el  pecho amor  es mi voz que se apaga.

Em - D - Em - D

Estrofa (en esta estrofa se arpegia)
                 Em                    Am   C
Para que no me olvides se encargará la luna  de susurrar
   D                        G    B7                  Em
mi nombre de acariciarte el alma  y si al volver al  día en que nos
    Am    C                    G          B7                 Em
conocimos  sientes algo en el  pecho amor  es mi voz que se apaga..
   C                    G          B7                             Em
 ...sientes algo en el  pecho amor  es mi voz.. es mi voz que se apaga.

Coro ( en el coro se rasga )

Em   E             Am          D           G           Em
        Y si esque hoy debo partir debo alejarme de tu amor tendremos
Am       B7            Em     E            Am            D       G
la eternidad para extrañarno ooos  te llevaré en mi corazón y tu rosa me
  Em           Am       B7           Em
darás pero con ella moriré cuando la corte.

Punteado

E---5/7-7-7------------------------7/10-8----7/8-8-8--------------------
B-----------8-7-7-----------8--10--------------------10-8-8--7----------
G----------------9---9--11-------------------------------------7-7-7----
D-----------------------------------------------------------------------
A-----------------------------------------------------------------------

E-7/10-10--8-7----------------
B-----------------------------
G-----------------------------
D-----------------------------
A-----------------------------
E-----------------------------


E---5/7-7-7-----------------------7/10-8----8-10--10/12--10--8--7-------
B-----------8-7-7-----------8--10---------------------------------8----
G-----------------9---9--11-----------------------------------------9-9-
D-----------------------------------------------------------------------
A-----------------------------------------------------------------------
E-----------------------------------------------------------------------

E-------------------
B7-7-7-8-7-7--------
G------------9------
D-------------------
A-------------------
E-------------------

Coro ( en el coro se rasga )

Em   E             Am          D           G           Em
        Y si esque hoy debo partir debo alejarme de tu amor tendremos
Am       B7            Em     E            Am            D       G
la eternidad para extrañarno ooos  te llevaré en mi corazón y tu rosa me
  Em           Am       B7           Em
darás pero con ella moriré cuando la corte.


Estrofa (en esta estrofa se arpegia)
                          Em                     Am      C
Para que.. para que no me olvides te guardaré mis versos   escritos
        D                      G    B7                   Em
en el   viento que enredara tu pelo  y si al volver al   día en que nos
    Am    C                    G          B7                 Em
conocimos  sientes algo en el  pecho amor  es mi voz que se apaga.


   C                    G          B7                             Em
 ...sientes algo en el  pecho amor  es mi voz.. es mi voz que se apaga.

(espero les guste, si hay alguna corrección o algo escribanme a
 wladgeo_simna@hotmail.com)

DON BOSCO  ( LA TOLA-QUITO)

!VIVA CARAJO¡





Calificar esta versión:
Aviso: Este fichero es trabajo propio de su transcriptor y representa su interpretación personal de la canción. El material contenido en esta página es para exclusivo uso privado, por lo que se prohibe su reproducción o retransmisión, así como su uso para fines comerciales.
Más versiones de Para Que No Me Olvides, Juan Fernando Velasco
Para Que No Me Olvides
acordes
Para Que No Me Olvides
tablatura
Para Que No Me Olvides (ver 2)
tablatura
Descubre más canciones de Juan Fernando Velasco