Chao Lola, Juan Fernando Velasco (tablatura) (ver 2)

Autor: wilmxn | 27709 visualizaciones



INTRO---



1-------------4-------------------------------------------
2--5--4---3--------4-----2--------------------------------
3---------------------------------------------------------
4---------------------------------------------------------
5---------------------------------------------------------
6---------------------------------------------------------


1------------2--------------------------------------------
2--5--4--3-------2----1-----------------------------------
3---------------------------------------------------------
4---------------------------------------------------------
5---------------------------------------------------------
6---------------------------------------------------------





Comentarios del colaborador: ES MUY FACIL EN GUITAR ORIGINALMENTE SE TOCA EN PIANO

Calificar esta versión:
Aviso: Este fichero es trabajo propio de su transcriptor y representa su interpretación personal de la canción. El material contenido en esta página es para exclusivo uso privado, por lo que se prohibe su reproducción o retransmisión, así como su uso para fines comerciales.
Más versiones de Chao Lola, Juan Fernando Velasco
Chao Lola
acordes
Chao Lola
tablatura
Chao Lola (ver 2)
tablatura
Chao Lola
teclado
Descubre más canciones de Juan Fernando Velasco