Chao Lola, Juan Fernando Velasco (tablatura)

Autor: wilmxn | 36780 visualizaciones



E) ---------------4---------------------------0------------
B) ---5--------------5---4----------2---4-------4---2------
G) ------ 6------------------4-----------------------------
D) -----------6------------------4-------------------------
A) ---4------------------2--------------------0------------
E) --------------------------------------------------------

                    
E) 4---0--------------------------------
B) --------5------------4--------4------
G) --------6------------5---6-----------
D) --------6------------4---------------
A) --------4------------6---------------
E) -------------------------------------





Comentarios del colaborador: ESTE ES EL INTRO ESPERO Q OS GUSTE

Calificar esta versión:
Aviso: Este fichero es trabajo propio de su transcriptor y representa su interpretación personal de la canción. El material contenido en esta página es para exclusivo uso privado, por lo que se prohibe su reproducción o retransmisión, así como su uso para fines comerciales.
Más versiones de Chao Lola, Juan Fernando Velasco
Chao Lola
acordes
Chao Lola
tablatura
Chao Lola (ver 2)
tablatura
Chao Lola
teclado
Descubre más canciones de Juan Fernando Velasco