Imagine, John Lennon (tablatura) (ver 5)

Autor: BetoPRS | 45305 visualizaciones

Riff 1:
    C                   C7m 
1|--0------0------0------0---|
2|--1------1------1------0---|
3|--0------0------0------0---|
4|--2------2------2------2---|
5|--3--3---3--3---3--3---3--3|
6|--0------0------0------0---|

  Fadd9
1|--3------3------3-------------|
2|--1------1------1-------------|
3|--2------2------2-------2-3-4-|
4|--3--3---3--3---3--3----------|
5|--0------0------0-------------|
6|--x------x------x-------------|
 


Riff 2: Fadd9,C,Dm,Em---Fadd9,G,C.

estas son las pasrtes de la cancion (sencillo) ustedes al oirla
sabran acomodarlas, no es nada dificil.



Lennon Legend
Calificar esta versión:
Aviso: Este fichero es trabajo propio de su transcriptor y representa su interpretación personal de la canción. El material contenido en esta página es para exclusivo uso privado, por lo que se prohibe su reproducción o retransmisión, así como su uso para fines comerciales.
Más versiones de Imagine, John Lennon
Imagine
acordes
Imagine (ver 2)
acordes
Imagine (ver 3)
acordes
Imagine (ver 4)
acordes
Imagine (ver 5)
acordes
Imagine (ver 6)
acordes
Imagine (ver 7)
acordes
Imagine (ver 8)
acordes
Imagine (ver 9)
acordes
Imagine
tablatura
Imagine (ver 2)
tablatura
Imagine (ver 3)
tablatura
Imagine (ver 4)
tablatura
Imagine (ver 5)
tablatura
Imagine
video guitarra
Descubre más canciones de John Lennon