Imagine, John Lennon (tablatura) (ver 2)

Autor: nacho13 | 39580 visualizaciones

E---------------------------------------------
B------------------0------------------------0-
G--0-----0----0----0-----2----2----2-----2-3--
D--2-----2----2----------3----3----3----------
A-----3----3----3----3-----3----3----3--------
E---------------------------------------------

E---------------------------------------------
B------------------0------------------------0-
G--0-----0----0----0-----2----2----2-----2-3--
D--2-----2----2----------3----3----3----------
A-----3----3----3----3-----3----3----3--------
E---------------------------------------------

E---------------------------------------------
B------------------0------------------------0-
G--0-----0----0----0-----2----2----2-----2-3--
D--2-----2----2----------3----3----3----------
A-----3----3----3----3-----3----3----3--------
E---------------------------------------------

Asi suena muy bien una forma facil para empesarlo a tocar e poner el acorde de DO y sacarle la nota Do
Calificar esta versión:
Aviso: Este fichero es trabajo propio de su transcriptor y representa su interpretación personal de la canción. El material contenido en esta página es para exclusivo uso privado, por lo que se prohibe su reproducción o retransmisión, así como su uso para fines comerciales.
Más versiones de Imagine, John Lennon
Imagine
acordes
Imagine (ver 2)
acordes
Imagine (ver 3)
acordes
Imagine (ver 4)
acordes
Imagine (ver 5)
acordes
Imagine (ver 6)
acordes
Imagine (ver 7)
acordes
Imagine (ver 8)
acordes
Imagine (ver 9)
acordes
Imagine
tablatura
Imagine (ver 2)
tablatura
Imagine (ver 3)
tablatura
Imagine (ver 4)
tablatura
Imagine (ver 5)
tablatura
Imagine
video guitarra
Descubre más canciones de John Lennon