Purple Haze, Jimi Hendrix (tablatura) (ver 3)

Autor: vudu | 25530 visualizaciones

Purple Haze
intro:::::::::::::::::::::::

E|---------------------
B|---------------------
G|------------------8--
D|-----8----8---8---8--
A|---------------------
E|---6----6---6---6----

E|---------------------------
B|-------8b------------------
G|-----7---------------------
D|-7/9------7---/5-----------
A|-----------------5--7-5/7--
E|---------------------------

E|--------------------------------------------------
B|--------------------------------------------------
G|--------------------------------------------------
D|-----5-7-7b9--5--5----------------5-7/9--5h7-5----
A|-5/7------------------------5-6/7--------------7--
E|-------------------5--7--3------------------------

E|--------------
B|--------------
G|-------7-7-9--
D|---7/9--------
A|--------------
E|--------------


E|---------------------------------
B|---8-8-8-8--------3---------5p7--
G|---7-7-7-7--------4---------6----
D|---6-6-6-6--------5---------7----
A|---7-7-7-7-----------------------
E|-0---------3-3-3-----5-5-5-------x2


    Purple haze was in my brain   
E|---------------------------------
B|---8-8-8-8--------3---------5p7--
G|---7-7-7-7--------4---------6----
D|---6-6-6-6--------5---------7----
A|---7-7-7-7-----------------------
E|-0---------3-3-3-----5-5-5-------
            
   Lately things dont seem  the same
E|---------------------------------
B|---8-8-8-8--------3---------5p7--
G|---7-7-7-7--------4---------6----
D|---6-6-6-6--------5---------7----
A|---7-7-7-7-----------------------
E|-0---------3-3-3-----5-5-5-------

    I am actin funny but I dont know why
E|--------------------------------------------
B|---8-8-8-8--------3---------5p7----------8--
G|---7-7-7-7--------4---------6------------7--
D|---6-6-6-6--------5---------7------------6--
A|---7-7-7-7-------------------------------7--
E|-0---------3-3-3-----5-5-5------------------
  
Excuse me while i kiss the sky


E|-----------------------------------
B|---------------------8b--------8b--
G|--9/11-9--7-------7----------7-----
D|--x----x--x--7/9--------7/9-------
A|--7/9--7--5------------------------
E|-----------------------------------
¬¬¬¬¬¬¬¬¬¬¬¬¬¬¬¬¬¬¬¬¬¬¬¬¬¬¬¬¬¬¬¬¬¬¬¬¬¬¬¬¬¬¬¬¬¬¬¬¬¬¬¬¬¬¬¬¬¬¬¬¬¬¬¬¬
EStOs SON LOS ACORDES QUE VA AYEVAR LA CANSION SIEMPRE BA A YEBAR ESTOS ACORDES ¬¬¬¬¬¬¬¬¬¬¬¬¬¬¬¬

E|----------
B|-8--3--5--
G|-7--4--6--
D|-6--5--7--
A|-7--------
E|----------

Purple haze all aroun
Don't know i f I'm coming up or down
Am i happy or in misery?
What ever it is that girl putt a spell on me

E|-----------------------------------
B|---------------------8b--------8b--
G|--9/11-9--7-------7----------7-----
D|--x----x--x--7/9--------7/9-------
A|--7/9--7--5------------------------
E|-----------------------------------


E|----------------
B|----------12b---
G|-------9--------
D|--\11-----------
A|----------------
E|----------------x2


E|------------15--
B|----------------
G|-------12-------
D|--\14-----------
A|----------------
E|----------------x2
 

E|-------------------------------
B|------15------1515---15---15---
G|-14b-----14b----14b--14b--14b--
D|---------------------------X---
A|---------------------------X---
E|---------------------------12--


solo 
E|--------------------------------------------
B|--------------------------------------------
G|-16-16h1816h18p16-16h14-----14h16p14-14h13--
D|--------------------------------------------
A|--------------------------------------------
E|--------------------------------------------

E|----------------------------------------------
B|----------------------------------------------
G|----13h14---13b----------------12---14-12-----
D|------------------16------14--------------14--
A|----------------------------------------------
E|----------------------------------------------

E|------------------------------
B|------------------------------
G|-12-----11/12\11-11-----------
D|---------------------14---12--
A|------------------------------
E|------------------------------

E|---------------------------------------
B|---------------------------------------
G|---------------------------------------
D|----12-14-12-11-12------------14---16--
A|-----------------------14/16-----------
E|---------------------------------------

E|----------------------------------
B|----------------------------------
G|----------------------------------
D|---(16)14h16p14p2--14--14/16--12--
A|----------------------------------
E|----------------------------------

E|---------------------------------12--------------
B|-----------------------------------12------------
G|-------------------------------------12----------
D|-16--12--16--12--16----12--------------12----14--
A|-------------------------------------------------
E|-------------------------------------------------

E|---------14-----12h14p12----12------------
B|-------------------------15-----14h15p14--
G|-11-12------------------------------------
D|------------------------------------------
A|------------------------------------------
E|------------------------------------------

E|-----------------------------------
B|-----14--12/14------------15-------
G|---------------14b------------14b--
D|-----------------------------------
A|-----------------------------------
E|-----------------------------------

se acaba el solo
E|---------------------------
B|-------8b------------------
G|-----7---------------------
D|-7/9------7---/5--0--------
A|----------------------5/7--
E|--------------------0------

E|---------------------------
B|-------8b------------------
G|-----7---------------------
D|-7/9------7---/5--0--------
A|----------------------5/7--
E|--------------------0------

E|--------------------------------------
B|--------------------------------------
G|--------------------7b----------------
D|-----------5h7-7b---7b----(7)----5----
A|------/7---------------------------7--
E|---0----------------------------------

E|--------------------------------
B|---------------------------(0)--
G|--------------------------------
D|-5h7-7-7b----7h5----------------
A|--------------------------------
E|------------------3-------------

E|-------------------------------------------
B|----------8b-------------------------------
G|-------7--------------------------------x--
D|---/9--------7---(7)\/5-----------------x--
A|-------------------------5----5/7-------x--
E|----------------------------3-------0------

E|----------------------------------
B|---8-8-8-8--------3---------5p7---
G|---7-7-7-7--------4---------6-----
D|---6-6-6-6--------5---------7-----
A|---7-7-7-7------------------------
E|-0---------3-3-3-----5-5-5--------

Purple haze was all in my eyes
E7(9+)                G5          A5
  Don't know if it's day or night
E7(9+)                      G5            A5
   You've got me blowing, blowing my mind
       E7(9+)
Is it tomorrow or just the end of time

E|-----------------------------------
B|---------------------8b--------8b--
G|--9/11-9--7-------7----------7-----
D|--x----x--x--7/9--------7/9-------
A|--7/9--7--5------------------------
E|-----------------------------------

ohooooo
E|----------------
B|----------12----
G|-------12-------
D|--\14-----------
A|----------------
E|----------------

help me
E|----------------
B|----------------
G|-------9--12----
D|--\11-----------
A|----------------
E|----------------

     ahh            yeah
E|-----------------------------------
B|-----12-14-15---1412h14p12---------
G|---------------------------14------
D|-------------------------------12--
A|-----------------------------------
E|-----------------------------------



E|----------     ----------
B|---15b17--     -15br15---
G|----------     ----------     TODO ESTO SE VA AREPETIR 8 VESES
D|----------     ----------
A|----------     ----------
E|---------- x17 ----------

«Purple Haze» es una canción grabada en 1967 por The Jimi Hendrix Experience, fue lanzada como sencillo en el Reino Unido y Estados Unidos, y forma parte del disco Are You Experienced?
El sencillo alcanzó la tercera posición en el Reino Unido, pero en Estados Unidos solo el lugar 65, donde fue lanzado en agosto de 1967, tres meses después de Are You Experienced? y cinco meses después que en el Reino Unido.

Comentarios del colaborador: creo que les ba air muy bien con esta cansion por que es muy sensiya

Calificar esta versión:
Aviso: Este fichero es trabajo propio de su transcriptor y representa su interpretación personal de la canción. El material contenido en esta página es para exclusivo uso privado, por lo que se prohibe su reproducción o retransmisión, así como su uso para fines comerciales.
Más versiones de Purple Haze, Jimi Hendrix
Purple Haze
tablatura
Purple Haze (ver 2)
tablatura
Purple Haze (ver 3)
tablatura
Descubre más canciones de Jimi Hendrix