Purple Haze, Jimi Hendrix (tablatura) (ver 2)

Autor: Anónimo | 17723 visualizaciones

--------------------------------------------------------8-------
---------------------------------------------------7-----------
---------8---------8---------8---------8----7/9--------------7b-
----7----7----7----7----7----7----7----7------------------------
----6---------6---------6---------6---------------------------

---------------------------------------------------------------
--------------------------------------8------------------------
---------------------------------7-----------------------------
----5----0----------------7/9--------------7b----5----0--------
--------------5----5/7-------------------------------------5

----------------------------------------------------------------
---------------------------------------------------------------
----------------------------------------------------------------
---------------------5----7/9----9/7----7----5----0------------
----5/7----5----7-------------------------------------------5--7
-------------------------------------------------------3--------

---------------------------------------------------------------
-------------------------------------------------------8----8--8
--------------------------------------7/9----9---------7----7--7
----5----7/9----9/7----7----5----0---------------------6----6--6
-------------------------------------------------------7----7-7:
--------------------------------------------------0-------------

----------------------------------------------------------------
----8----8-----------------------------------------------------
----7----7-----------------------------------------------------
----6----6-----------------------------------------------------
----7----7----5----5----5----5----5/7----7----7----7----7------
--------------3----3----3----3----3/5----5----5----5----5----0-

---------------------------------------------------------------
----8----8----8----8----8--------------------------------------
----7----7----7----7----7-------------------------------------------6----6----6----6----6--------------------------------------
----7----7----7----7----7----5----5----5----5----5/7----7----7-
-----------------------------3----3----3----3----3/5----5----5-

---------------------------------------------------------------
-------------------8----8----8----8----8-----------------------
-------------------7----7----7----7----7-----------------------
-------------------6----6----6----6----6-----------------------
----7----7---------7----7----7----7----7----5----5----5----5---
----5----5----0-----------------------------3----3----3----3---

---------------------------------------------------------------
---------------------------------------------------------------8
------------------------------------------------------------7---
-----------------------------------------------------7/9------------5/7----7----7----7----7---------3/9----7----5--------------
----3/5----5----5----5----5----0-------------------------------

----------------------------------------------------------------
-----------------8---------8----8----8----8----8----------------
------------7--------------7----7----7----7----7----------------
-----7/9-------------------6----6----6----6----6----------------
---------------------------7----7----7----7----7----5----5----5-
----------------------0-----------------------------3----3----3-

----------------------------------------------------------------
------------------------------------------8----8----8----8----8-
------------------------------------------7----7----7----7----7-
------------------------------------------6----6----6----6----6-
-----5----5/7----7----7----7----7---------7----7----7----7----7-
-----3----3/5----5----5----5----5----0--------------------------

----------------------------------------------------------------
---------------------------------------------------------8----8-
---------------------------------------------------------7----7-
---------------------------------------------------------6----6-
-----5----5----5----5----5/7----7----7----7----7---------7----7-
-----3----3----3----3----3/5----5----5----5----5----0-----------

---------------------------------------------------------------
----8----8----8-------------------------------------------------
----7----7----7-------------------------------------------------
----6----6----6-------------------------------------------------
----7----7----7----5----5----5----5----5/7----7----7----7----7-
-------------------3----3----3----3----3/5----5----5----5----5-

---------------------------------------------------------------
-------------------------------------8----------------8--------
--------------------------------7----------------7-------------
-------------------------7/9--------------7/9------------------
---------3/9----7---5------------------------------------------
----0----------------------------------------------------------

-----------------9-----------------9-------------------15------
---------------------------------------------------------------
------------9-----------------9------------------12----------------9/11--------------9/11--------------12/14------------------
---------------------------------------------------------------
---------------------------------------------------------------
                         
-------------------15------------------------------------------
-------------------------15b----15b----15b*----15----15----15--
-------------12----------14b----14b----14b*----14----14----14--
----12/14------------------------------------------------------
---------------------------------------------------------------
---------------------------------------------------------------
                              
----------------------------------------------------14b--------
----------------------------------------------------14b--------
----16----16----18----14----14----16----13----14----14b--------
---------------------------------------------------------------
---------------------------------------------------------------
---------------------------------------------------------------

---------------------------------------------------------------
---------------------------------------------------------------
----------12h14p12----12----11h12p11---------------------------
----14----------------------------------14----12----12h14p12---
---------------------------------------------------------------
---------------------------------------------------------------

---------------------------------------------------------------
---------------------------------------------------------------
-----------------------------------------------------------11--
----11----12-----------14----16----14----12----16----12--------
----------------/16--------------------------------------------
---------------------------------------------------------------

----------------------------------------------------14b----12--
---------------------------------------------------------------
----------11----------11-------------------11h12---------------
----12----------12----------12----12h14------------------------
---------------------------------------------------------------
---------------------------------------------------------------

---------------------------------------------------------------
---------------------------------------------------------------
-----------------------------------------------------------11--
----11----12-----------14----16----14----12----16----12---------
----------------/16--------------------------------------------
---------------------------------------------------------------




---------------------------------------------------------------
---------------8--------------------------------------------8---
----------7--------------------------------------------7--------
----/9--------------7b----5----0----------------7/9------------
------------------------------------5----5/7-------------------
---------------------------------------------------------------

---------------------------------------------------------------
--------------------------------------------------------------
---------------------------------------------------------------
----7b----5----0-------------------------5----7/9----9/7----7--
--------------------5----5/7----5----7-------------------------
---------------------------------------------------------------

---------------------------------------------------------------
-------------------------------8--------------------------------
--------------------------7------------------------------------
----5----0---------7/9--------------7b----5----0---------------
----------------------------------------------------5----5/7---
--------------0------------------------------------------------

---------------------------------------------------------------
---------8----8----8----8----8---------------------------------
---------7----7----7----7----7---------------------------------
---------6----6----6----6----6---------------------------------
---------7----7----7----7----7----5----5----5----5----5/7----7-
----0-----------------------------3----3----3----3----3/5----5-

---------------------------------------------------------------
------------------------8----8----8----8----8------------------
-----------------------7----7----7----7----7------------------
------------------------6----6----6----6----6------------------
----7----7----7---------7----7----7----7----7----5----5----5---5
----5----5----5----0-----------------------------3----3----3---3

---------------------------------------------------------------
------------------------------------8----8----8----8----8------
------------------------------------7----7----7----7----7------
------------------------------------6----6----6----6----6------
----5/7----7----7----7----7---------7----7----7----7----7----5-
----3/5----5----5----5----5----0-----------------------------3-

---------------------------------------------------------------
---------------------------------------------------------------
---------------------------------------------------------------
--------------------------------------------------------------
----5----5----5----5/7----7----7----7----7---------3/9----7---5-
----3----3----3----3/5----5----5----5----5----0----------------

---------------------------------------------------------------
----------------8----------------8-----------------------------
-----------7----------------7----------------------------------
----7/9--------------7/9---------------------------------------
---------------------------------------------------------------
---------------------------------------------------------------

Comentarios del colaborador: este es el tab de jimi hendrix purple haze completo

Aviso: Este fichero es trabajo propio de su transcriptor y representa su interpretación personal de la canción. El material contenido en esta página es para exclusivo uso privado, por lo que se prohibe su reproducción o retransmisión, así como su uso para fines comerciales.
Más versiones de Purple Haze, Jimi Hendrix
Purple Haze
tablatura
Purple Haze (ver 2)
tablatura
Purple Haze (ver 3)
tablatura
Descubre más canciones de Jimi Hendrix