Bonito, Jarabe De Palo (tablatura)

Autor: Anónimo | 43876 visualizaciones



ESTE ES COMO EL BAJEO DE LA ROLA PA UN ACOMPAÑAMIENTO 
CON OTRA GUITARRA, 
  Q LES ASEGURO SE OYE MUY BIEN

 bonito todo me parese bonito
E|--------------------------
B|--------------------------
G|--------------------------
D|---7---6-6--6--6-6-6--7----
A|-9--9----------------9--9-      
E|--------------------------      
bonito todo me parese bonito
E|--------------------------
B|--------------------------
G|--------------------------
D|---7---6-6--6--6-6-6--7---
A|-9--9----------------9--9-
E|--------------------------
que bonito que te va cuando te va bonito
                                   q bonto que te va
E|-----------------------------   -----------------
B|-----------------------------   ------------------
G|--------------------------2--   ------------------
D|-7-7-7-7-6-6-6--6-6-6-6-4--4-   -7-7-7-7-6-6-6----
A|-----------------------------   -----------------
E|-----------------------------   ------------------
 que bonito q se esta cuando se esta bonito
                                 q bonito q se esta  
E|-----------------------------   -----------------
B|-----------------------------   ------------------
G|--------------------------2--   ------------------
D|-7-7-7-7-6-6-6--6-6-6-6-4--4-   -7-7-7-7-6-6-6----
A|-----------------------------   -----------------
E|-----------------------------   ------------------

ESTA ES OTRA FORMA PA ACOMPAÑARLA ROLA
 SI QUIEREN ALGUNO PARESIDO DE ALGUNA
OTRA ROLA MANDENME UN MAIL Y ABER QUE AGO YO JAJA.
Y ARRIBA DELICIAS CHIHUAHUA MEX.
    Y UN SALUDO PA LOS CUZCOS DE LOS GIRASOLES 18 1/2 JAJA 

 
                     M A P G

Fuente original: LaCuerda
Colaborador original: Miguel Angel Parada Garcia [miguel_real_one@hotmail.com]





Calificar esta versión:
Aviso: Este fichero es trabajo propio de su transcriptor y representa su interpretación personal de la canción. El material contenido en esta página es para exclusivo uso privado, por lo que se prohibe su reproducción o retransmisión, así como su uso para fines comerciales.
Más versiones de Bonito, Jarabe De Palo
Bonito
acordes
Bonito (ver 2)
acordes
Bonito (ver 3)
acordes
Bonito
tablatura
Descubre más canciones de Jarabe De Palo