Pon Aceite En Mi Vida, Jaime Murrell (bajo) (ver 2)

Autor: Anónimo | 17996 visualizaciones

Hola espero les guste es la versión en vivo
estoy 100% seguro k mi tablatura esta bien
en este canto suena súper chido el bajeo chequen la tablatura
esta idéntica ojala puedan dejar su comentario...

Intro bajo

G:-----------------------|----------------------------|
D:------------------5---9|-----------------9—-7-------|
A:--7-6-5-----5-6-7------|-7-6-5---5-6-7--------10—-7-|z2
E:---------7-------------|-------7--------------------|



Verso:
Pon aceite en mi vida Señor...
1ra vez

   Em^7
G:-----------|-----------|------7-------|--------------|
D:-----------|-----7-----|----7---7-----|-----5---4----|
A:-----7-----|---7---7-7-|--5—------5---|---5---5--5---|
E:-0-7--70---|-5------5--|-----------5--|-3------------|

   Em^7
G:-------------|-------------|----------|---------------|
D:-------------|-----7-------|-----9----|----------2----|
A:-7--------7--|---7---7-----|---9---9--|-----7---------|
E:---7-0--7--7-|-5-------5-6-|-7------7-|-0-7----2--2---|


Pon aceite en mi vida Señor...
2da vez

(Es lo mismo k la 1ra parte solamente cambia las ultimas notas)

   Em^7
G:-----------|-----------|------7-------|--------------|
D:-----------|-----7-----|----7---7-----|-----5---4----|
A:-----7-----|---7---7-7-|--5—------5---|---5---5--5---|
E:-0-7--70---|-5------5--|-----------5--|-3------------|

   Em^7
G:-------------|-------------|-----------|-------------|
D:-------------|-----7-------|-----9-----|-------------|
A:-7--------7--|---7---7-----|---9---9---|-----7--7----|
E:---7-0--7--7-|-5-------5-6-|-7-------7-|-0-7-----7---|


Coro:
y me gozare...             Y me alegrare….

G:------------|-----------|------------|--------------|
D:---7---7----|---9---9---|---7---7----|---9----9-----|
A:-5---5--56--|-7---7--76-|-5---5---56-|-7----7---76--|
E:----5-------|----7------|----5-------|-----7--------|




El me a vestido de lino fino...
G:-----------------------------------------------|
D:---------------------------7-------9-9-9-------|
A:---7-5----------7-----------------9-----9------|
E:-5-----5--3-2-0--0----5-5-5—-5-7-----------7---|



Coro:
y me gozare...             Y me alegrare….

G:------------|-----------|------------|--------------|
D:---7---7----|---9---9---|---7---7----|---9----9-----|
A:-5---5--56--|-7---7--76-|-5---5---56-|-7----7---76--|
E:----5-------|----7------|----5-------|-----7--------|



Convidado he sido a las bodas...

G:-----------------------------------------|
D:--------------------------9-11-9---------|
A:---7-5----------7-------9--------9-------|
E:-5-----5--3-2-0--0----7------------7-----|



Intro de nuevo
G:-----------------------|----------------------------|
D:------------------5---9|-----------------9—-7-------|
A:--7-6-5-----5-6-7------|-7-6-5---5-6-7--------10—-7-|
E:---------7-------------|-------7--------------------|





Solo de Bajo (slap)

G:-----9-7---9---------------|----9-7---9----------------|
D:----------9----5-7-5-------|---------9---5-7-5---------|
A:-5-7------------------7-65-|-5-7----------------5-6-7--|x2
E:---------------------------|---------------------------|

Final

G:-----------------------|----------------------------|
D:------------------5---9|-----------------9—-7-------|
A:--7-6-5-----5-6-7------|-7-6-5---5-6-7--------10—-7-|
E:---------7-------------|-------7--------------------|




Bueno  esto es todo  k Dios les bendiga
Pd: No olviden calificar mi tablatura…
Calificar esta versión:
Aviso: Este fichero es trabajo propio de su transcriptor y representa su interpretación personal de la canción. El material contenido en esta página es para exclusivo uso privado, por lo que se prohibe su reproducción o retransmisión, así como su uso para fines comerciales.
Más versiones de Pon Aceite En Mi Vida, Jaime Murrell
Pon Aceite En Mi Vida
bajo
Pon Aceite En Mi Vida (ver 2)
bajo
Descubre más canciones de Jaime Murrell