Pon Aceite En Mi Vida, Jaime Murrell (bajo)

Autor: Anónimo | 29517 visualizaciones

intro:

2 veces
G:---------------0-4-----|---------------4-2-0---|
D:-2-1-0---0-1-2---------|-2-1-0---0-1-2-------2-|
A:-------2---------------|-------2---------------|
E:-----------------------|-----------------------|


verso:
2 veces
pon aceite en mi vida Señor...
G:-----------------2-----------7-----------------|
D:-----2---------2---2-------7---7---------5-----|
A:---2---2-----0-------0---5-------5-----5---5---|
E:-0-------0---------------------------3-------3-|


G:-----------------2-----------4-----------------|
D:-----2---------2---2-------4---4---------------|
A:---2---2-----0-------0---2-------2-------------|
E:-0-------0---------------------------0-2-------|



coro:
y me gozare...
G:-----------------------------------------------|
D:-----------------------------------------------|
A:-5-3-4-5-5-5-3-4-7-5-6-7-7-7-5-7---------------|
E:-----------------------------------------------|


y me alegrare...
G:-----------------------------------------------|
D:-----------------------------------------------|
A:-7-6-5-3-4-5-5-5-3-4-7-5-6-7-7-7-5-7-----------|
E:-----------------------------------------------|



el me a vestido de lino fino...
G:-----------------------------------------------|
D:---2-0-----------------2-2-2-2-2---------------|
A:-0-----0-------0-0-0---------------------------|
E:---------3-2-0---------------------------------|


(CORO)


convidado he sido al as bodas...
G:-----------------------------------------------|
D:---2-0-----------------------------------------|
A:-0-----0-------2-2-2-2-------------------------|
E:---------3-2-0---------------------------------|


(SOLO)
2 veces
G:---------------0-4-----|---------------4-2-0---|
D:-2-1-0---0-1-2---------|-2-1-0---0-1-2-------2-|
A:-------2---------------|-------2---------------|
E:-----------------------|-----------------------|

despues se repite todo de nuevo


solo de Bajo
2 veces
G:-------------1---------|-------------1---------|
D:---2-2---2-4---4-2-0---|---2-2---2-4---4---0-2-|
A:---------------------3-|-----------------3-----|
E:-0-----0---------------|-0-----0---------------|



(CORO)



(SOLO)
1 vez
G:---------------0-4-----|---------------4-2-0---|
D:-2-1-0---0-1-2---------|-2-1-0---0-1-2-------2-|
A:-------2---------------|-------2---------------|
E:-----------------------|-----------------------|

(CORO)

si tienes dudas escribeme a mi e-mail
que Dios les bendiga
Viva el Ecuador!!!!!!!!!!
suerte!
Calificar esta versión:
Aviso: Este fichero es trabajo propio de su transcriptor y representa su interpretación personal de la canción. El material contenido en esta página es para exclusivo uso privado, por lo que se prohibe su reproducción o retransmisión, así como su uso para fines comerciales.
Más versiones de Pon Aceite En Mi Vida, Jaime Murrell
Pon Aceite En Mi Vida
bajo
Pon Aceite En Mi Vida (ver 2)
bajo
Descubre más canciones de Jaime Murrell