Lo Que Nos Ocupa Es Esa Abuela La Conciencia, Invisible (tablatura) (ver 2)

Autor: Anónimo | 26641 visualizaciones



Intro  (x4)
e|---(9)-(9)-(9)-(7)---(7)-----------------------------------9--11--|
b|----9--9---9---7-x-x--7/9-9--------------7-----------------9--11--|
g|----9--9---9---7-x-x--7/9-9--------9b11---11rb9-7-9-7-------------|
d|----9--9---9---7-x-x--7/9-9---------------------------------------|
a|----7--7---7---5-x-x--5/7-7---------------------------------------|
E|------------------------------------------------------------------|


  B5              C    A5                       Riff1
Dime nena ya có-mo estás despierta
Dime nena ya có-mo estás despierta-


Riff1
                               p.m.------------------|
e|-------------------------------------------------------------------|
b|-------------------------------------------------------------------|
g|-------------------------------------------------------------------|
d|----------2-0---------------------------------------2-0------------|
a|-----------------2p0-------------------------------------2h0-------|
E|--0-0-0---------------3p0----0-0-0-0-0-0-0-----------------3h0-----|

Riff2
-Ahh
   C            B    C#° D                                      (x3)
e|-8---8---8----7----12--10--10---------10----------10---------------|
b|-8---8---8----7----11--10------10h12----12h10----------------------|
g|-9---9---9----8----12--11-------------------------------11h12-12-11|
d|-10--10--10---9----11--12------------------------------------------|
a|-------------------------------------------------------------------|
E|-------------------------------------------------------------------|

      C                  B              D       B      D
e|--8---8---8-----7----12---10---10-10-10-------7----10------------|
b|--8---8---8-----7----11---10---10-10-10-------7----10------------|
g|--9---9---9-----8----12---11---11-11-11-------8----11------------|
d|-10--10--10-----9----11---12---12-12-12-------9----12------------|
a|-----------------------------------------------------------------|
E|-----------------------------------------------------------------|

Riff1 (x2)


  B5                      C    A5                  Riff1(x2)
Cuando triste estoy nena me das cola
  B5                      C    A5                  Riff1(x2)
Cuando triste estoy nena me das cola
  B5                    C    D                 G*   Riff2
¿Y si quiero más? ¿Por qué estás tan sola?

Puente1

Esus4- E                         B
          Hay un camino que nace con tu imagen
A - A7                              B
          Al que es muy fácil llegar
Esus4- E                         B
          Sólo es preciso el brillo de tus ojos
 A - A7                              B
          Para encontrar un alma

 C5              D5       G5 (E--0) G5   Riff1
Lo que no resisto es la    con---ciencia
 C5              D5       G5 (E--0) G5   Riff1
Es la abuela que regula el mundo
  B5              C    D                 G*   Riff2
Dime nena ya: ¿Es este otro mundo?

Puente 2 (igual que Puente1)
Es este un sueño que pasa por nosotros
Es la vereda de los descalzos
Espera espera
Yo siempre te espero anidado en una mano

 C5              D5       G5 (E--0) G5   Riff1
Lo que nos ocupa es esta abuela
 C5              D5       G5 (E--0) G5   Riff1
La conciencia que regula el mundo
  B5              C    D                 G*   Riff2
Dime nena ya cómo estás despierta

Variaciones de Riff 1
e|--10b12-10-7----------------------------------------------| (x4)
b|-----------------10-9-8-9---------------------------------|
g|-----------------------------9/---------------------------|
d|-----------------------------------------x-2--------------|
a|-----------------------------------------x-2--------------|
E|-----------------------------------------x-0--------------|

con wah-wah
e|-----9b10-9--7-9----------x----x------x-------------------|(x5)
b|-------------------8------x----x--x---x-------------------|
g|--------------------------x--x-x--x---x-------------------|
d|--------------------------x--x-x--x---x-------------------|
a|--------------------------x--x----x-----------------------|
E|--------------------------x-------------------------------|

Riff1

 B5                C5      D           G
Pero nena igual no elijas llorar


MI primer tablatura.
Ojalá les sirva.

   E  A D G B E
G* x-10-9-7-8-7





Calificar esta versión:
Aviso: Este fichero es trabajo propio de su transcriptor y representa su interpretación personal de la canción. El material contenido en esta página es para exclusivo uso privado, por lo que se prohibe su reproducción o retransmisión, así como su uso para fines comerciales.
Más versiones de Lo Que Nos Ocupa Es Esa Abuela La Conciencia, Invisible
Lo Que Nos Ocupa Es Esa Abuela La Conciencia
tablatura
Lo Que Nos Ocupa Es Esa Abuela La Conciencia (ver 2)
tablatura
Lo Que Nos Ocupa Es Esa Abuela La Conciencia
bajo
Descubre más canciones de Invisible