Lo Que Nos Ocupa Es Esa Abuela La Conciencia, Invisible (bajo)

Autor: Anónimo | 16438 visualizaciones



Intro

G|-------------------------------|
D|-----------------7---7---------|
A|-7-7-5-5s7-7s9-9---9---10-9-8--|
E|-------------------------------|x4

"Dime nena ya..."  (Riff)

G|----------------|-----9---7------------9---7----------|
D|----------------|-----------9-7--------------9-7------|
A|----------------|-777-----------10-7-7-----------10-7-|
E|-7-7-7-888-5-5-5|-------------------------------------|x 2

"Dime nena ya..."

G|--------------------|
D|--------------7---5-|
A|-2-2-2-333--5---5---|
E|--------------------|

G|---7-----------------|---------|
D|-----5-----5-----2-0-|-4-5-6-7-|
A|-------5-3---3-2-----|---------|
E|---------------------|---------|(x4)

G|-----|
D|-----|
A|-3-5-|
E|-----|

Riff

"Cuando triste estoy"

G|----------------|-----9---7------------9---7----------|
D|----------------|-----------9-7--------------9-7------|
A|----------------|-777-----------10-7-7-----------10-7-|
E|-7-7-7-888-5-5-5|-------------------------------------|x 2

"y si quiero más"


G|--------------------|
D|--------------7---5-|
A|-2-2-2-333--5---5---|
E|--------------------|

G|---7-----------------|---------|
D|-----5-----5-----2-0-|-4-5-6-7-|
A|-------5-3---3-2-----|---------|
E|---------------------|---------|

G|---7---------------|---------|
D|-----5---------2-0-|-4-5-6-7-|
A|-------5-----------|---------|
E|---------5-555-----|---------|(x4)  Ojo que es diferente al anterior

G|-----|
D|-----|
A|-3-5-|
E|-----|

"Hay un camino..."

G|---9---9---------8---8----------6---6---------|
D|----------------------------------------------|
A|-7---7---77-(0)6---6---66-(0)-4---4---44-(0)--|
E|----------------------------------------------|

...llegar"

G|---4-------6-------8--|
D|----------------------|
A|-2---(0)-4---(0)-6----|
E|----------------------|

"Sólo es preciso..."

G|---9---9---------8---8----------6---6---------|
D|----------------------------------------------|
A|-7---7---77-(0)6---6---66-(0)-4---4---44-(0)--|
E|----------------------------------------------|

G|---4---4-4---|
D|-------------|
A|-2---2-----2-|
E|-------------|

"Lo que no resisto..."

G|-------------------------|
D|-----2-5-2-------5---5---|
A|3-33-------3-0-0---7-----|
E|-------------------------| + Riff  (todo x2)

Repeticiones...

Al final:


Riff 2 (distinto al anterior)

G|-------9-7-------------|
D|-----------9-8-7-------|
A|-7-7-7-----------10-7--|
E|-----------------------|(x4)

Variación del Riff 2 (Cambia el tiempo y el final del riff)

G|-------9-7------------|
D|-----------9-8-7------|
A|-7-7-7-----------10---|
E|----------------------|(x13)

Termina: "no elijas llorar..."

G|--------------------|
D|--------------7---5-|
A|-2-2-2-333--5---5---|
E|--------------------|





Calificar esta versión:
Aviso: Este fichero es trabajo propio de su transcriptor y representa su interpretación personal de la canción. El material contenido en esta página es para exclusivo uso privado, por lo que se prohibe su reproducción o retransmisión, así como su uso para fines comerciales.
Más versiones de Lo Que Nos Ocupa Es Esa Abuela La Conciencia, Invisible
Lo Que Nos Ocupa Es Esa Abuela La Conciencia
tablatura
Lo Que Nos Ocupa Es Esa Abuela La Conciencia (ver 2)
tablatura
Lo Que Nos Ocupa Es Esa Abuela La Conciencia
bajo
Descubre más canciones de Invisible