Te Quiero Aqui, Insite (acordes) (ver 2)

Autor: cKAr | 24703 visualizaciones



intro

   D*(2)      C#*(2(           G*(2)

e----0---------0----------------0------
b--------3---------2----------------1--
g------2---------2----------------0----
d--0-----------------------------------
a------------4---------4--2------------
e-----------------------------3--------

G*
Ya nada es igual
D*
desde que llegaste a mi
C#
mi vida no le falta nada
G*
es como un sueño
D*
contigo soy feliz
C#
me siento como un niño
G*
con un beso tuyo.

D*
Otra vez
B*
bésame otra vez
G*
siénteme
G*
enseñame a vivir.

D*
Otra vez
B*
dímelo otra vez
G*
te quiero aquí
G*
soy todo tuyo.

G*
Ya nada es igual
D*
cuando te fuiste de mi
B*
me ves llorando otro año en tu recuerdo
D*
y el dia siempre es gris
B*
ya no me dejas reir como antes
G*
ya no siento.

D*
Otro mas
B*
dame otro dia mas
G*
quedate
G*
no te vayas.

D*
Mirame
B*
voy a caer por ti
G*
te quiero aqui
G*
soy todo tuyo.

D*
Quiereme
C#
vuelve a quererme como antes
G*
si, ya no te vayas

D*
Quiereme
C#*
vuelve a quererme como antes
G*
si, ya no te vayas

D*
Quiereme
B*
vuelve a quererme como antes
G*
si, ya no te vayas

D*
Quiereme
B*
vuelve a quererme como antes
 G*
si...


ACORDES

   D*      C#*    G*     B*

e  --0--  --0--  -----  -----
b  --3--  --2--  --3--  --3--
g  --2--  --2--  -----  --4--
d  --0--  -----  -----  --4--
a  -----  --4--  -----  -----
e  -----  -----  --3--  -----





Comentarios del colaborador: www.letrasyacordes.net

Calificar esta versión:
Aviso: Este fichero es trabajo propio de su transcriptor y representa su interpretación personal de la canción. El material contenido en esta página es para exclusivo uso privado, por lo que se prohibe su reproducción o retransmisión, así como su uso para fines comerciales.
Más versiones de Te Quiero Aqui, Insite
Te Quiero Aqui
acordes
Te Quiero Aqui (ver 2)
acordes
Descubre más canciones de Insite