Te Quiero Aqui, Insite (acordes)

Autor: daniel24 | 37162 visualizaciones



...................ACORDES.....................

    Dx      Ax      Gx      Bm

e  --0--   --0--   --0--   --2--
b  --3--   --2--   --3--   --3--
g  --2--   --2--   --0--   --4--
D  --0--   --0--   --0--   --4--
A  --0--   --2--   --2--   --2--
E  --2--   --2--   --3--   --2--



...INTRO...
Dx-Ax-Gx - Dx-Ax-Gx

((2 veces))    ((2 veces))    ((2 veces))

e----0------  ---0---------  -----0------
b--------3--  -------2-----  ---------1--
g------2----  -----2-------  -------0----
D--0--------  -------------  ------------
A-----------  -4-----------  ------------
E-----------  -------------  ---3--------

((2 veces))    ((2 veces))    ((2 veces))
e----0------  ---0---------  -----0------
b--------3--  -------2-----  ---------1--
g------2----  -----2-------  -------0----
D--0--------  -------------  ------------
A-----------  -4-----------  ------------
E-----------  -------------  ---3--------


            Bm                         Ax
Ya nada es igual, desde que llegaste a mi
               Gx                         Bm
mi vida no le falta nada, es como un sueño.
Bm               Ax                     Gx
  Contigo soy felíz, me siento como un niño
con un beso tuyo.

Dx               Ax
Otra vez, bésame otra vez
      Gx               Dx
Siénteme, enséñame a vivir.

Dx               Ax
Otra vez, dímelo otra vez
            Gx                Dx(se queda en este tono)
te quiero aquí, soy todo tuyoooooo.

...................Puente Musical..................
la verdad no se notan mucho los cambios en esta parte.
Chequen los tonos que van y midan bien los tiempos.

Dx – Ax – Bm – Gx
Dx – Ax – Bm - Gx


            Bm                        Ax
Ya nada es igual, cuando te fuiste de mi
                Gx                    Bm
me ves llorando otro año en tu recuerdo.
Bm                      Ax
  Y el día siempre es gris
                Gx
ya no me dejas reír, como antes ya no siento.


Dx                  Ax
Otro mas, dame otro día mas
     Gx
Quédate, no te vayas.

Dx             Ax
Mírame, voy a caer por ti
            Gx               Dx
te quiero aquí, soy todo tuyooo.


((requinteo como el del Intro))
((y se tokan estos 3 tonos 2 veces))

.........Dx – Ax – Gx
.........Dx – Ax - Gx


   Dx                  Ax
Quiéreme, vuelve a quererme como antes
Gx
si?, ya no te vayas

   Dx                  Ax
Quiéreme, vuelve a quererme como antes
Gx
Si?, ya no te vayas

   Dx                  Ax
Quiéreme, vuelve a quererme como antes
Gx
si, ya no te vayas

   Dx                  Ax
Quiéreme, vuelve a quererme como antes
Gx
Si?......



...NOTA...
Si akaso batallan para poner los tonos lo
mas preferente es ke token los tonos como
son normalmente, ya sin importar
si tienen Capo o no tienen...
Por ejemplo:
Gx -> G normal
Ax -> A normal
Dx -> D normal





Calificar esta versión:
Aviso: Este fichero es trabajo propio de su transcriptor y representa su interpretación personal de la canción. El material contenido en esta página es para exclusivo uso privado, por lo que se prohibe su reproducción o retransmisión, así como su uso para fines comerciales.
Más versiones de Te Quiero Aqui, Insite
Te Quiero Aqui
acordes
Te Quiero Aqui (ver 2)
acordes
Descubre más canciones de Insite