Mirando Al Cielo, Huecco (tablatura) (ver 2)

Autor: Anónimo | 38658 visualizaciones



Esta es mi primer intro que cuelgo, espero no tener fallos en la
transcripcion y que sea de vuestro agrado.

Esta cancion yo la haria dos guitarras esta muy guapa, uno rasgando
y el otro punteando de la forma que abajo especifico. Los dos primeros
parrafos suena solo con el punteo, la segunda guitarra rasgando
entraria en [...Los mejores años de nuestras vidas...].

                   (cejilla 4º traste o en Mi)

[UNO RASGA LAS NOTAS Y OTRO PUNTEA LA INTRO]

Intro: DO  SOL  LAm  MIm  FA  DO  FA  SOL


E|-|--7--7h4--9--7--5h4--4-|-4~----------------|-----4------------------|
B|-|-----------------------|----7--10--9--7--5-|-5h4----7--5h4----------|
G|-|-----------------------|-------------------|---------------6--9--8h4|
D|-|-----------------------|-------------------|------------------------|
A|-|-----------------------|-------------------|------------------------|
e|-|-----------------------|-------------------|------------------------|


Eso se repite dos veces y se comienza con la cancion:

     DO                        SOL          LAm                    MI
E|-|---------------------------------|-----------------------------------|
B|-|------5------------------------4-|-----------5---------------------4-|
G|-|------4------------------------4-|-----------6---------------------5-|
D|-|----6----------------------------|---------6-------------------------|
A|-|--7--------------------------6---|-------4-----------------------6---|
e|-|---------------------------7-----|-7/8-------------------------4-----|
     Los mejores años de nuestra vida      Las mejores lunas sabor a miel.

     FA                        DO         SOL                       FA
E|-|------------------------------------|----------------------------------
B|-|-----5----------------------------5-|------4-------------------------5-
G|-|-----6----------------------------4-|------4-------------------------6-
D|-|----7---------------------------6---|------------------------------7---
A|-|-7----------------------------7-----|----6-----------------------7-----
e|-|------------------------------------|--7-------------------------------
    Tus manos traviesas nunca se olvidan  Tu boca impaciente sobre mi piel

SOL-1
-----------|-|
--------7--|-|
--------8--|-|
-----------|-|
------9---9|-|
-5--7------|-|


([LA ULTIMA PARTE SE HACE MUY RAPIDO Y SE ENLAZA CON EL SIGUIENTE VERSO]

     DO                        SOL          LAm                       MI
E|---------------------------------|--------------------------------------|
B|-----5----5------------------4--4|--------5----5--------------------4--4|
G|-----4----4------------------4--4|--------6----6--------------------5--5|
D|---6-----6-----------------------|------6-----6-------------------------|
A|-7-------------------------6---6-|----4---------------------------6---6-|
e|-------------------------7-------|7/8----------------------------4------|
 Siento dntro q' se acabn mis días   El siguiente héroe caído puedo ser

   FA                        DO       SOL                       FA
E|---------------------------------|-----------------------------------
B|-----5---5-------------------5--5|----4---4------------------------5-
G|-----6---6-------------------4--4|----4---4------------------------6-
D|----7---7-------------------6--6-|-------------------------------7---
A|-7------------------------7------|--6----6---------------------7-----
e|---------------------------------|7----------------------------------
  No quiero leyendas de valentías    Ni medallas x cumplir con mi deber..

SOL
----------|
-------7--|
-------8--|
----------|
-----9---9|
5--7------|
 .. eer..

[Estribillo]

   DO                        SOL     LAm                         FA
E|--------------------------------|-----------------------------------|-|
B|-----5------------------------4-|-----5---------------------------5-|-|
G|-----4------------------------4-|-----6---------------------------6-|-|
D|---6----------------------------|---6---------------------------7---|-|
A|-7--------------------------6---|-4---------------------------7-----|-|
e|--------------------------7-----|-----------------------------------|-|
  Y que hago aquí mirando al cielo   A diez mil kilómetros de tus besos

   DO                        SOL              MI                   FA
E|--------------------------------|--------------------------------------|
B|-----5------------------------4-|---------------4---------------------5|
G|-----4------------------------4-|---------------5---------------------6|
D|---6----------------------------|-----------------------------------7--|
A|-7--------------------------6---|------------6--------------------7----|
e|---------------------------7----|-----------4--------------------------|
  Besando banderas abriendo fuego  Cavando trincheras si te echo de menos

     DO                        SOL     LAm                         FA
E|--------------------------------|--------------------------------------|
B|-----5------------------------4-|--------5---------------------------5-|
G|-----4------------------------4-|--------6---------------------------6-|
D|---6----------------------------|------6---------------------------7---|
A|-7--------------------------6---|----4---------------------------7-----|
e|--------------------------7-----|--------------------------------------|
  Y que hago aquí mirando al cielo   A diez mil kilómetros de tus besos

   DO                        SOL             MI                   FA
E|--------------------------------|---------------------------------------|
B|-----5------------------------4-|--------------4---------------------5--|
G|-----4------------------------5-|--------------5---------------------6--|
D|---6----------------------------|----------------------------------7----|
A|-7---------------------------6--|------------6-------------------7------|
e|---------------------------7----|----------4----------------------------|
  Besando banderas abriendo fuego   Cavando trincheras si te echo de menos

   SOL                        LAm            FA         SOL
E|------------------------------------------------------|------|-|
B|------4-----------------------------5---------5-------|---7--|-|
G|------4-----------------------------6---------6-------|---8--|-|
D|----------------------------------6---------7---------|------|-|
A|----6---------------------------4---------7-----------|-9---9|-|
e|--7-----------------------------------------------5--7|------|-|
  Jugá' esta mi vida entre bombardeos                    Te echo..




     DO              SOL          LAm         MIm
E|-|-----------------------|----------------------|-|
B|-|------------5--------4-|-----------5--------4-|-|
G|-|------------4--------4-|-----------6--------4-|-|
D|-|----------6------------|---------6------------|-|
A|-|--------7----------6---|-------4----------6---|-|
e|-|-----------------7-----|-----------------4----|-|
      de menos…              Y que hago aquí…

     FA            DO          FA         SOL-1      SOL-1
E|-|---------------------|-----------------------|-|------|-|
B|-|-----5-------------5-|---------5----------7--|-|---7--|-|
G|-|-----6-------------4-|---------6----------8--|-|---8--|-|
D|-|----7------------6---|-------7---------------|-|------|-|
A|-|-7-------------7-----|-----7------------9---9|-|-9---9|-|
e|-|---------------------|----------------7------|-|------|-|
               Sin tiiiiiiiiiiiii   no puedo…       Te echo..


    DO              SOL          LAm         MIm
E|-|-----------------------|----------------------|-|
B|-|------------5--------4-|-----------5--------4-|-|
G|-|------------4--------4-|-----------6--------4-|-|
D|-|----------6------------|---------6------------|-|
A|-|--------7----------6---|-------4----------6---|-|
e|-|-----------------7-----|-----------------4----|-|
      de menos…              Y que hago aquí…

     FA            DO          FA         SOL-1
E|-|---------------------|-----------------------|-|
B|-|-----5-------------5-|---------5----------7--|-|
G|-|-----6-------------4-|---------6----------8--|-|
D|-|----7------------6---|-------7---------------|-|
A|-|-7-------------7-----|-----7------------9---9|-|
e|-|---------------------|----------------7------|-|
                  Miraaa... ...aandoo  aal cieloo



[SIGUIENDO LA MISMA ESQUEMATICA CONTINUA LA CANCIÓN]

DO                          SOL
Los mejores años de nuestras vidas
       LAm                            MI
Se los estoy dando no se a qué o a quién
FA                               DO
Me he emboscao’ en una misión suicida
  SOL                  FA        SOL
Esta puede ser la última vez

             DO         SOL
Que te hable que te escriba
        LAm            MIm
Que te llore que te diga
              FA               DO
Que daría mi vida por morir a tu lado
               FA                     SOL
Y gritarle al viento que fui un mal soldado
             DO          SOL
Que te hable que te escriba
             Am       E
Que te llore que te diga
             F                C
Que daría mi vida por morir a tu lado
               F                    G
Y gritarle al viento que fui un mal soldado

            DO               SOL
Y que hago aquí mirando al cielo
             LAm               FA
A diez mil kilómetros de tus besos
          DO                SOL
Besando banderas abriendo fuego
            MI                   FA
Cavando trincheras y te echo de menos
           DO              SOL
Y que hago aquí mirando al cielo
              LAm                FA
A diez mil kilómetros de tus besos
         DO                 SOL
Besando banderas abriendo fuego
            MI                    FA
Cavando trincheras si te echo de menos
          SOL                   LAm   …    FA  SOL
Jugá está mi vida entre bombardeos

INTRO:   DO  SOL  LAm  MIm  FA  DO  FA  SOL
Te echo de menos…
Y que hago aquí…Sin ti…No puedo
Te echo de menos…Y que hago aquí
Mirando al cielo

[LAS SIGUIENTES PARTES SE HACE SIGUIENDO LA MISMA ESQUEMATICA DE ACORDES]

Lejos, extremadamente lejos de tus besos
Intentando en mano cazar las estrellas con los dedos
Echándote de menos, tu carita de melocotón
Tu boca, tu pelo
Mirando al cielo implorando un tiempo muerto
Al dueño del universo pa’ que escuche mis versos
Y me mande de regreso directo a la tierra del fuego
A tu cama en llamas con besos de queroseno
Y me enveneno aquí sin ti, extraño tu presencia
Que es miembro de tu esencia
Duele más tu ausencia
Que las balas del infierno


[ESTA PARTE SE HACE HACIENDO PALM-MUTE]

Y que hago aquí mirando al cielo
A diez mil kilómetros de tus besos
Besando banderas abriendo fuego
Cavando trincheras si te echo de menos
Y que hago aquí mirando al cielo
A diez mil kilómetros de tus besos
Besando banderas abriendo fuego
Cavando trincheras y te echo de menos
Y que hago aquí mirando al cielo
A diez mil kilómetros de tus besos
Besando banderas abriendo fuego
Abriendo fuego, abriendo fuego…


[ACORDES A ACLARAR: ]

 SOL     SOL-1

E-|7|    E-|7|
B-|4|    B-|7|
G-|4|    G-|8|
D-|4|    D-|9|
A-|6|    A-|9|
E-|7|    E-|7|

Gracias Ivan, muy correcta tu observación para su mejora, TODO UN CRACK! ;)
Dedicada especialemente para la "rosa marchita" que ha marchado..





Calificar esta versión:
Aviso: Este fichero es trabajo propio de su transcriptor y representa su interpretación personal de la canción. El material contenido en esta página es para exclusivo uso privado, por lo que se prohibe su reproducción o retransmisión, así como su uso para fines comerciales.
Más versiones de Mirando Al Cielo, Huecco
Mirando Al Cielo
acordes
Mirando Al Cielo
tablatura
Mirando Al Cielo (ver 2)
tablatura
Descubre más canciones de Huecco