Mirando Al Cielo, Huecco (tablatura)

Autor: Anónimo | 23715 visualizaciones



Es el punteo de introducción. Espero os guste.

BAJO (por si alguien quiere acompañamiento, y sirve también para el Canon)
1------------------------
2------------------------
3------------------------
4------------------------
5---7----4------7----7---
6-----7----4--5----5-----

INTRO
1----7---9--7h9-----------|--------------------|----------------------
2-------9---------7-10-9--|--9-7-10-9--7h9-----|---9-7h9-----------7--
3-------------------------|-----------------9--|--9-----9-8--6-9--8---
4-------------------------|--------------------|----------------------
5-------------------------|--------------------|----------------------





Calificar esta versión:
Aviso: Este fichero es trabajo propio de su transcriptor y representa su interpretación personal de la canción. El material contenido en esta página es para exclusivo uso privado, por lo que se prohibe su reproducción o retransmisión, así como su uso para fines comerciales.
Más versiones de Mirando Al Cielo, Huecco
Mirando Al Cielo
acordes
Mirando Al Cielo
tablatura
Mirando Al Cielo (ver 2)
tablatura
Descubre más canciones de Huecco