La Villerita, Horacio Guarany (tablatura) (ver 2)

Autor: Anónimo | 23152 visualizaciones



Estimados

poco apto para principiantes

Esta versión es la intro en Sim o Bm.
Obviamente cuando empieza a cantar
es en Fa sostenido menor.
Con lo cual aquellos que recién empiezan
usen transporte en la segunda Cejilla.
Primero escuchen a través del video o MP3
para identificar los sonidos.
De última me piden el GPX Guitar pro 6.
En el primer compás empieza rasgando acordes.

OJO! CUANDO APARECE LA NUMERACIÓN CON LA LETRA L
ES PORQUE SON LIGADOS.
PARA LOS NOVATOS SE TRATA DE UN LIGADO
ES DECIR QUE LA NOTA SE TOCA UNA SOLA VEZ
ES DECIR SE TOCA LA PRIMERA DE LAS L SOLAMENTE.

Ejemplo: la primera L que aparece es el 11L
en el segundo compás o casillero significa que se toca
y el 11 que sigue no porque es extensión del primero
pero si el tercer once que sigue.




E |--5-----------4-----------3-------------|----------------------|
B |--5-----------4-----------3-------------|-----------------11L--|
G |--6-----------5-----------4-------------|-----------9--11------|
D |--7-----------6-----------5-------------|-----8--11------------|
A |--7-----------6-----------5-----7--8----|--9-------------------|
E |--5-----------4-----------3-------------|----------------------|


-----------9----------|-----10---------------|
--11----11----11-12L--|--12-12----12-11-10---|
-----11---------------|----------------------|
----------------------|----------------------|
----------------------|----------------------|
----------------------|----------------------|


--------------------7-------------------|----------------------|
--9-----------9-------------------------|-----------------9L---|
--------9-------------------------------|-----------7--9-------|
----------------------------------------|-----6--9-------------|
--------------------------------5--6----|--7-------------------|
----------------------------------------|----------------------|


-----------7----------|-----9-----7--8--9L---|
--9-----9-----9--10L--|--10-10----8--9--10L--|
-----9----------------|----------------------|
----------------------|-----------9--10-11L--|
----------------------|----------------------|
----------------------|----------------------|


--9L----------9L----------9-------------|
--10L---------10L---------10------------|
----------------------------------------|
--11L---------11L---------11----9--10---|
----------------------------------------|
----------------------------------------|


--------9-----------------9-------------|
----------------------------------------|
----------------------------------------|
--11----------9--10-11----------9--10---|
----------------------------------------|
----------------------------------------|


--------9-----------------9-------------|
----------------------------------------|
----------------------------------------|
--11----------9--10-11----------9--10---|
----------------------------------------|
----------------------------------------|


----------------------------------------|
--------12----------------12------------|
----------------------------------------|
--11----------9--10-11----------9--10---|
----------------------------------------|
----------------------------------------|


----------------------------------------|
--------12----------------12------------|
----------------------------------------|
--11----------9--10-11----------9--10---|
----------------------------------------|
----------------------------------------|


----------------------------------------|
--------10----------------10------------|
----------------------------------------|
--11----------9--10-11----------9--10---|
----------------------------------------|
----------------------------------------|


----------------------------------------|-----------------9----|
--------9-----------------9-------------|-----------10---------|
----------------------------------------|-----11-------11------|
--11----------9--10-11----------9--10---|--11------------------|
----------------------------------------|----------------------|
----------------------------------------|----------------------|


-----14---------------||
--10------------------||
----------------------||
----------------------||
----------------------||
----------------------||





Calificar esta versión:
Aviso: Este fichero es trabajo propio de su transcriptor y representa su interpretación personal de la canción. El material contenido en esta página es para exclusivo uso privado, por lo que se prohibe su reproducción o retransmisión, así como su uso para fines comerciales.
Más versiones de La Villerita, Horacio Guarany
La Villerita
acordes
La Villerita
tablatura
La Villerita (ver 2)
tablatura
Descubre más canciones de Horacio Guarany