La Villerita, Horacio Guarany (tablatura)

Autor: Anónimo | 47146 visualizaciones



ACA LES DEJO EL PUNTEO DE LA INTRO!
ESPERO QUE LES SEA DE UTILIDAD
CUALQUIER COSA ME ESCRIBEN: manuelsot@hotmail.com

  MIm     MI7               LAm  RE            SOL      SI7
E|-------------0-4--0-4-7-5-8-8-------------5--7-7-3-5-6-7--
B|----------0-3-------------------------7--7--8-------------
G|---------1-------------------------5-7--7-----------------
D|--------2-----------------------4-7--------------5-7-8-9--
A|-------------------------------5--------------------------
E|-3-2-1-0-------------------------------------------------


  MIm                        SI7
E|------7-|           E|------5-|
B|------8-|           B|------7-|
G|--------|   ESTO    G|--------| ESTO
D|-7~8~9--|   4 Veces D|-7~8~9--| 4 Veces
A|--------|           A|--------|
E|--------|           E|--------|


              LAm    SOL    SI7     MIm
E|------7-----------------------------7-12--|
B|-------------10-----8------7-------8--12--|
G|----------------------------------9---12--|
D|-7~8~9--7~8~9--7~8~9--7~8~9--7~8~9--------|
A|------------------------------------------|
E|------------------------------------------|





Calificar esta versión:
Aviso: Este fichero es trabajo propio de su transcriptor y representa su interpretación personal de la canción. El material contenido en esta página es para exclusivo uso privado, por lo que se prohibe su reproducción o retransmisión, así como su uso para fines comerciales.
Más versiones de La Villerita, Horacio Guarany
La Villerita
acordes
La Villerita
tablatura
La Villerita (ver 2)
tablatura
Descubre más canciones de Horacio Guarany