Es Tiempo, Hillsong (tablatura)

Autor: ruben | 34304 visualizaciones



Intro:

Guitar 1: Use a pick then it's speed is in 1/16th beat
e|--5-5-5-5-5-5-5-5-5-5-5-5-5-5-5-5-5--|
B|-------------------------------------|
G|-------------------------------------|
D|-------------------------------------|
A|-------------------------------------|
E|-------------------------------------|

Guitar 2: 1/16th beat also while palm muted
e|----------------------------|
B|----------------------------|
G|----------------------------|
D|-7-7-7-7-7-7-7-7-7-7-7-7----|
A|-7-7-7-7-7-7-7-7-7-7-7-7----|
E|-5-5-5-5-5-5-5-5-5-5-5-5----|

Guitar 3: 1/16th beat too
e|---------------------------|
B|---------------------------|
G|-9-9-9-9-9-9-9-9-9-9-9-9---|
D|-x-x-x-x-x-x-x-x-x-x-x-x---|
A|-7-7-7-7-7-7-7-7-7-7-7-7---|
E|---------------------------|

Verse :Found love beyond all reason/Caught In The Mercy Fallout (x2)

Guitar 1: 1/16th beat
e|--5-5-5-5-5-5-5-5-5-5-5-5-5-5-5-5-5--|
B|-------------------------------------|
G|-------------------------------------|
D|-------------------------------------|
A|-------------------------------------|
E|-------------------------------------|

Guitar 2: 1/16th beat while palm muted
e|----------------------------|
B|----------------------------|
G|----------------------------|
D|-7-7-7-7-7-7-7-7-7-7-7-7----|
A|-7-7-7-7-7-7-7-7-7-7-7-7----|
E|-5-5-5-5-5-5-5-5-5-5-5-5----|

Guitar 3:
e|-0~----------|
B|-2~----------|
G|-2~----------|
D|-2~----------|
A|-0~----------|
E|-------------|

For me, and called me yours forever/need, you're all I need (x2)

Guitar 1: 1/16th beat
e|--5-5-5-5-5-5-5-5-5-5-5-5-5-5-5-5-5--|
B|-------------------------------------|
G|-------------------------------------|
D|-------------------------------------|
A|-------------------------------------|
E|-------------------------------------|

Guitar 2: 1/16th beat, 4 beats each alignment to save space here in tabbing
e|----------------------------------|
B|----------------------------------|
G|---------7-7-7-7------------------|
D|-4-4-4-4-7-7-7-7-7-7-7-7-7-7-7-7--|
A|-4-4-4-4-5-5-5-5-7-7-7-7-7-7-7-7--|
E|-2-2-2-2---------5-5-5-5-5-5-5-5--|

Guitar 3: different beats
e|------9----------9~--------9~--9----------------------------|
B|---------------------------------10p9h10-10-10h12-12p10-10--|
G|-11~-----11-11~------11-9-----------------------------------|
D|------------------------------------------------------------|
A|------------------------------------------------------------|
E|------------------------------------------------------------|


Refrain:
The time has come To stand for all we believe in/So I For One am gonna give my praise to
(x2)

Guitar 1: 1/8th beat
e|---0-----0-----0---0-----0-----0---0-----0-----0---5-5-5-5---------|
B|-----------------------------------------------------------2-2-3-3-|
G|-----2-----2-----2---2-----2-----2---2-----2-----2-----------------|
D|-2-----2-----2---------4-----4---------0-----0---------------------|
A|-------------------------------------------------------------------|
E|-------------------------------------------------------------------|

Guitar 2: 1/16 beat
e|-------------------------2-2-2-2--|
B|-------------------------3-3-3-3--|
G|-----------------7-7-7-7-2-2-2-2--|
D|-2-2-2-2-4-4-4-4-7-7-7-7-0-0-0-0--|
A|-2-2-2-2-4-4-4-4-5-5-5-5----------|
E|-0-0-0-0-2-2-2-2------------------|

Guitar 3: 1/16th beat
e|-5-5-5-5-7-7-7-7-9-9-9-9-10-10-10-10-|
B|-------------------------------------|
G|-------------------------------------|
D|-------------------------------------| (x2)
A|-------------------------------------|
E|-------------------------------------|


Chorus: Today Today it's all or nothing...(x2)

Guitar 1: 1/8th beat
e|-12--12--12--12--9--9--9--9-10-10-10-10--9--9--9--9--|
B|-10--10--10--10-10-10-10-10-10-10-10-10-10-10-10-10--|
G|--9---9---9---9--9--9--9--9--9--9--9--9--9--9--9--9--|
D|-----------------------------------------------------|
A|-----------------------------------------------------|
E|-----------------------------------------------------|

Guitar 2: 1/8th beat
e|-----------------------------------------------|
B|-----------------------------------------------|
G|-----------------7-7-7-7-----------------------|
D|-7-7-7-7-4-4-4-4-7-7-7-7-7-7-7-7/19-19-19-19---|
A|-7-7-7-7-4-4-4-4-5-5-5-5-7-7-7-7/19-19-19-19---|
E|-5-5-5-5-2-2-2-2---------5-5-5-5/17-17-17-17---|

Guitar 3: 1/8th beat
e|-0-0-----0-----5-4-------------------------0----0----5-----0--------|
B|-2-------2-----2---5-3-2h3p0---------------0----0----2-----0--------|
G|-2---2-----2-----------------1h2---------2--------2------2----------|
D|-2-----2-----2-------------------2p0h2-4-----2-2----2--4------------|
A|-0-----------------------------------------------------------0h2h4--|
E|--------------------------------------------------------------------|
then
e|-2-2-0-2-------------0-5-4-----0-0-0-0-0-0-0-0-0-0-0-0-0-0-0-0------|
B|-3-3-3-3---3-2-------------3-2-2-2-2-2-2-2-2-2-2-2-2-2-2-2-2-2------|
G|---------------2p1h2-----------2-2-2-2-2-2-2-2-2-2-2-2-2-2-2-2------|
D|---------0---------------------2-2-2-2-2-2-2-2-2-2-2-2-2-2-2-2------|
A|-------------------------------0-0-0-0-0-0-0-0-0-0-0-0-0-0-0-0------|
E|--------------------------------------------------------------------|

Bridge:

Guitar 1: different beats x2
e|----------------------------------------------------------------|
B|----------------------------------------------------------------|
G|------------------------7~--6-7-9-------------------------------|
D|----------------------7-----------------7~--6-7-9---------------|
A|-9-9-7-9~--9p7/10-5-5-----------------7-----------7/12-12-12-12-|
E|----------------------------------5-5---------------------------|

Guitar 2: 1/16th beat, 4 beats each alignment to save space here in tabbing
e|----------------------------------|
B|----------------------------------|
G|---------7-7-7-7------------------|
D|-4-4-4-4-7-7-7-7-7-7-7-7-7-7-7-7--|
A|-4-4-4-4-5-5-5-5-7-7-7-7-7-7-7-7--|
E|-2-2-2-2---------5-5-5-5-5-5-5-5--|

Guitar 3: different beats
e|------9----------9~--------9~--9----------------------------|
B|---------------------------------10p9h10-10-10h12-12p10-10--|
G|-11~-----11-11~------11-9-----------------------------------|
D|------------------------------------------------------------|
A|------------------------------------------------------------|
E|------------------------------------------------------------|


Bass solo:


Part 1: x2

Guitar 1 & 2: Idle

Guitar 3: this is a tremlo + pedal effect
      1/16th beat       n-tuplet beat on this one
e|-----------------|-----------------|
B|-----------------|-----------------|
G|-----------------|-----------------|
D|-9-9-9-9-9-9-9-9-|--7b----7b----7b-|
A|-----------------|--4b----4b----4b-|
E|-----------------|--5b----5b----5b-|


Part 2: All we Have is yours... (All the Guitars in this part should sound resembling to
helicopter)

Guitar 1: Will enter at 2:56 and 1/16th beat
e|---------------------------------|
B|---------------------------------|
G|-9-9-9-9-9-9-9-9-6-6-6-6-4-4-4-4-|
D|---------------------------------| (x2)
A|---------------------------------|
E|---------------------------------|

Guitar 2: Palm mute 1/8th beat x2
e|---------------------------------|
B|---------------------------------|
G|---------4-4-4-4-7-7-7-7---------|
D|-4-4-4-4-4-4-4-4-7-7-7-7-7-7-2-2-| (x3)
A|-4-4-4-4-2-2-2-2-5-5-5-5-7-7-2-2-|
E|-2-2-2-2-----------------5-5-0-0-|

Guitar 3: Will Enter at 2:43 and 1/16th beat
e|-9-9-9-9--10-10-10-10-9-9-9-9---------------------|
B|------------------------------10-10-10-10-9-9-9-9-|
G|--------------------------------------------------|
D|--------------------------------------------------| (x3)
A|--------------------------------------------------|
E|--------------------------------------------------|


Refrain 2: x2

Guitar 1: Idle

Guitar 2:
e|---------------------|
B|---------------------|
G|-9~----11~-----7~----|
D|-9~----11~-----7~----|
A|-7~-----9~-----5~----|
E|---------------------|





Guitar 3:
e|--------------10~----|
B|-9~----10~-----------|
G|---------------------|
D|---------------------|
A|---------------------|
E|---------------------|

Song Order

Intro
Verses
Refrain
Chorus
Verses
Refrain
Chorus
Bridge
Bass solo
Refrain 2
Refrain 1
Chorus
Bridge





Comentarios del colaborador: yap qui esta me costo caleta pero igual la saque

Calificar esta versión:
Aviso: Este fichero es trabajo propio de su transcriptor y representa su interpretación personal de la canción. El material contenido en esta página es para exclusivo uso privado, por lo que se prohibe su reproducción o retransmisión, así como su uso para fines comerciales.
Más versiones de Es Tiempo, Hillsong
Es Tiempo
acordes
Es Tiempo (ver 2)
acordes
Es Tiempo
tablatura
Es Tiempo
bajo
Descubre más canciones de Hillsong