Es Tiempo, Hillsong (bajo)

Autor: ruben | 16048 visualizaciones

Intro:
G|--------------------------------------------|
D|--------------------------------------------|
A|---7/12-12-12-12-12-12-12-12-12-12----------|
E|--------------------------------------------|

Verse: Found love beyond al reason
G|---------------------|
D|---------------------|
A|---12~-------199----|
E|---------------------|

...Me, And called me Yours Forever
G|----------------------7--6-7-9---------------------------------------|
D|--------------------7----------------7--6-7-9------------------------|
A|--9-9-7-9--9/12-5-5----------------7----------7/12-12-12-12-12-12-12-|
E|-------------------------------5-5-----------------------------------|

Caught in the mercy fallout
G|-----------------------------|
D|-----------------------------|
A|---12~---12h14p12----199----|
E|-----------------------------|

...Need, You're all I need
G|----------------------7--6-7-9---------------------------------------|
D|--------------------7----------------7--6-7-9------------------------|
A|--9-9-7-9--9/12-5-5----------------7----------7/12-12-12-12-12-12-12-|
E|-------------------------------5-5-----------------------------------|

Refrain: The time Has Come, To Stand for all we believe in
G|-------------9---------------9---------------7----------------------------|
D|-----------9---9-----------7---7-----------7---7--------------------------|
A|-7-7-7-7-7-------9-9-9-9-9-------5-5-5-5-5-------17-17-17-17-17-16-14-12--| x2
E|--------------------------------------------------------------------------|

Chorus: Today, today it's all or nothing x2
G|--------------------------------------------------------7-6-7-9-7-6-----------------2-2-2-2-2-2-2-2-|
D|-------------7--7-7-7-6-4-----------------------------7---------------------------------------------|
A|-----------7---------------4--------------2-4-5--5-5----------------0-0-0-0-0-0-0-0-----------------|
E|-0h5--5-5--------------------2-2--2-0-2-2-----------------------------------------------------------|

Bridge:
G|----------------------7--6-7-9---------------------------------------|
D|--------------------7----------------7--6-7-9------------------------|
A|--9-9-7-9--9/12-5-5----------------7----------7/12-12-12-12-12-12-12-| x2
E|---------------------------------------------------------------------|

Cool bass parts: This will exercise your fingers
G|-----2-4-----2-4-----2-4-----2-4-----2-4-------------2-4----------|
D|-4-4-----4-4-----4-4-----4-4-----------------2-4-------------2-4--|
A|---------------------------------2-2-----2-2-----2-2-----2-2------| x2
E|------------------------------------------------------------------|


All We Have Is yours And all we're living for
G|-----2-4-----2-4-----2-4-----2-4-----2-4-------------2-4--------------|
D|-4-4-----4-4-----4-4-----4-4-----------------2-4-------------2-4------|
A|---------------------------------2-2-----2-2-----2-2-----2-2------<---|
E|------------------------------------------------------------------ ---|
                                                                      |
Is all You are, It's all that you are Lord                            | x2
G|-----2-4-------------2-4------------------------------------------ ---|
D|-0-0-----0-0-----0-0-----0-0---------------------2-2-2-2-2-2-2-2--<---|
A|-------------2-0-------------2-0-0-0-0-0-0-0-0-0----------------------|
E|----------------------------------------------------------------------|

Refrain 2:
G|----------------|
D|----------------|
A|--7~--9~--5~~---| (x2)
E|----------------|

Outro:
G|----------------------7--6-7-9---------------------------------------|
D|--------------------7----------------7--6-7-9------------------------|
A|--9-9-7-9--9/12-5-5----------------7----------7/12-12-12-12-12-12-12-|
E|---------------------------------------------------------------------|
then
G|----------------------7--6-7-9------------|
D|--------------------7---------------------|
A|--9-9-7-9--9/12-5-5------------0~~~~~-----|
E|------------------------------------------|


Calificar esta versión:
Aviso: Este fichero es trabajo propio de su transcriptor y representa su interpretación personal de la canción. El material contenido en esta página es para exclusivo uso privado, por lo que se prohibe su reproducción o retransmisión, así como su uso para fines comerciales.
Más versiones de Es Tiempo, Hillsong
Es Tiempo
acordes
Es Tiempo (ver 2)
acordes
Es Tiempo
tablatura
Es Tiempo
bajo
Descubre más canciones de Hillsong