Adicto, Hijos Del Oeste (tablatura)

Autor: lautaro.r | 27517 visualizaciones

Sol         Re             Mim
Me siento solo cuando caigo por las noches
Me siento solo cuando hay tanta gente alrededor
        Do            Re         Sol      Do
Yo quisiera que estuvieras a mi lado todavía
Do            Re           Sol
Se que me dejaste por mi error.

Sol                      Re           Mim
Si te dejo no es que no tenga que escaparme?
Me persigo cuando esta saliendo tanto el Sol
         Do               Re              Sol           Do
Y es que hice tantas cosas malas de las que no me arrepiento
De           Re                 Sol
Se que soy adicto al Rock And Roll.
Do           Sol   Do             Sol
Sos tan diferente, al resto de la gente
Do                      Re             Sol  Do  Sol
Sos tan diferente y me quedo? respirandote.

 Solo en :Sol - Re - Mim - Do X3
          Sol - Re - Mim - Mim


e|--------------------------------------------------
B|-------15------15---------------------------------
G|-14/16---14/16----16/14--12h14h12----12-12~-------
D|----------------------------------14--------------
A|--------------------------------------------------
E|--------------------------------------------------

e|--------------------------------------------------
B|--------------15----------------------------------
G|----12--14/16----16/14--12------------------------
D|-14------------------------14~--------------------
A|--------------------------------------------------
E|--------------------------------------------------

e|--------------------------------------------------
B|--------------15-----------15---------------------
G|-----12--14/16  /14~--14/16  /14~--14--12~-------- ARREGLO CON
D|-14----------------------------------------------- OTRA GUITARRA
A|--------------------------------------------------
E|--------------------------------------------------

e|-------------------------8s12--10--10~------------
B|-12--12h13h12s10s8s5--8---------------------------
G|--------------------------------------------------
D|--------------------------------------------------
A|--------------------------------------------------
E|--------------------------------------------------

e|--------------------------------------------------
B|-12h13h12-----------------------------------------
G|-----------14--12--9--12--12~---------------------
D|--------------------------------------------------
A|--------------------------------------------------
E|--------------------------------------------------

e|--------------------------------------------------
B|----12--13--13h12------------13h12----------------
G|-12---------------12---------------12-------------
D|---------------------12---------------12----------
A|--------------------------------------------------
E|--------------------------------------------------

e|-------------------14h15--15--15~-----------------
B|--------------------------------------------------
G|-11h12--12--12~-----------------------------------
D|--------------------------------------------------
A|--------------------------------------------------
E|--------------------------------------------------


Do           Sol   Do             Sol
Sos tan diferente, al resto de la gente
Do                     Re
Sos tan diferente y me quedo?


          Sol         Re           Mim
Me siento solo cuando tomo por las noches
Es tan triste que todo esto termine asi
    Do                       Re       Sol           Do
Me duele saber que que estoy preso de todas tus mentiras
Do            Re              Sol
Se que soy adicto al Rock And Roll.
Do           Sol   Do             Sol
Sos tan diferente, al resto de la gente
Do                     Re                Sol  Do  Sol
Sos tan diferente y me quedo? respirandote....

         Sol   Do   Sol
Rspirandote                   MUCHAS VECES HASTA QUE TERMINA

Comentarios del colaborador: www.lacuerda.net

Calificar esta versión:
Aviso: Este fichero es trabajo propio de su transcriptor y representa su interpretación personal de la canción. El material contenido en esta página es para exclusivo uso privado, por lo que se prohibe su reproducción o retransmisión, así como su uso para fines comerciales.
Más versiones de Adicto, Hijos Del Oeste
Adicto
acordes
Adicto
tablatura
Descubre más canciones de Hijos Del Oeste