Apuesta Al Rock & Roll, Heroes Del Silencio (tablatura)

Autor: Anónimo | 35610 visualizaciones



C.Proensa Sept-2001 - Apuesta por el Rockn Roll

Cualquier comentario, corrección o adición a:
cpmweb@hotmail.com




Mientras los acordes:

e----------------
B----------------
G----------------
D---2p0-0--------
A-------2--------
E----------0-----


Acordes:

Em  -  G
Em  -  G
D   -  Em
G   -  B7 


Solo: 

Guitarra 1
|-------------------------------------------------------------
|-------------------------------------------------------------
|-------0--0-4-7-4-------------2p0----0h2-24-4h7-7b(9r7)---
|---------2---------b(9)r7p5--------2p0-----------------------
|---5h7----------------------7--------------------------------
|-------------------------------------------------------------
                   

|----------------------------------------------10----
|----------------8~-8-10b(11r10)p8-10p8---8-12------
|--7p4-4h7-79~-------------------------9------------
|----------------------------------------------------
|----------------------------------------------------
|----------------------------------------------------


|-----------------------------------------------------
|--12-10----------------------------------------------
|--------12-14b(16r14)p12-14p12----9-9h12-97-7-------
|-----------------------------------------------------
|-----------------------------------------------------
|-----------------------------------------------------


|-------------------------------------12~~---12p10--10--12~~-
|-------8-10b(11r10)p8-10p8---8-1012------12-----12--12------
|--7-9 --------------------9---------------------------------
|-------------------------------------------------------------
|-------------------------------------------------------------
|-------------------------------------------------------------


|----------------------------------------10---------------------------------
|------10b(12r10)--------10h12p10------13--12-13-10-12-8-10-7-8-5-7-3-5-1-3-
|--9-12----------12-9-12---------12-9---------------------------------------
|---------------------------------------------------------------------------
|---------------------------------------------------------------------------
|---------------------------------------------------------------------------


 (Guitarra 1)
|--------------------------------------------------------
|--0-1---------------------------------------------------
|------2-4-0-2---0---------------------------------------
|--------------4---2-------------------------------------
|--------------------------------------------------------
|--------------------------------------------------------
|
|Entra guitarra 2
|-------------------12/----------------------------------
|-------------------12/--12~--10brp-8--10b-8~~--12~~---
|-------------------9-----------------9------------------
|--------------------------------------------------------
|--------------------------------------------------------
|--------------------------------------------------------

(guitarra 2)
|-------------------------------------------------------------------
|---------------------------------------8-10-8h10-----8-1012-12~~-
|------7---9-7~~----------7-7h9~~------7-------------7--------------
|--79---9-----------(5)9------------9------------~9---------------
|---------------7~-------------------------------------------------
|-------------------------------------------------------------------


|---------------------------------------------------------
|-15b(17)--(17)r15p12-------------------------------------
|---------------------14br-12-1416-16~~~-----------------
|----------------------------------------------17p14~~----
|---------------------------------------------------------
|---------------------------------------------------------


|---------------------------------15---
|------------------------15--1517---
|---------12--12h14-1416--16--------
|-12-12h14--14----------------------
|---------------------------------
|---------------------------------



Ya no puedo darte el corazón
Iré donde quieran mis botas
Y si quieres que te diga qué hay que hacer
Te diré que apuestes por mi derrota

Quítate la ropa, así está bien
No dejes nada por hacer
Si has venido a comprarme lárgate
Si vas a venir conmigo agárrate

Larguémonos chica hacia el mar
no hay amanecer en esta ciudad
Y no sé si nací para correr
pero quizás sí que nací para apostar

Sé que ya nada va a ocurrir
Pero ahora estoy contra las cuerdas
Y no veo ni una forma de salir
Pero voy a apostar fuerte mientras pueda

[solo]

Larguémonos chica hacia el mar
no hay amanecer en esta ciudad
Y no sé si nací para correr
pero quizás sí que nací para apostar

Ya no puedo darte el corazón
Perdí mi apuesta por el Rockn Roll
Es la deuda que tengo que pagar
Y ya no tiene sentido abandonar
Y ya no tiene sentido abandonar
No late el corazón

Fuente original: LaCuerda
Colaborador original: cpm [cpmweb@hotmail.com]





Calificar esta versión:
Aviso: Este fichero es trabajo propio de su transcriptor y representa su interpretación personal de la canción. El material contenido en esta página es para exclusivo uso privado, por lo que se prohibe su reproducción o retransmisión, así como su uso para fines comerciales.
Más versiones de Apuesta Al Rock & Roll, Heroes Del Silencio
Apuesta Al Rock & Roll
acordes
Apuesta Al Rock & Roll
tablatura
Apuesta Al Rock & Roll (ver 2)
tablatura
Apuesta Al Rock & Roll (ver 3)
tablatura
Apuesta Al Rock & Roll
bajo
Apuesta Al Rock & Roll (ver 2)
bajo
Apuesta Al Rock & Roll (ver 3)
bajo
Descubre más canciones de Heroes Del Silencio