Apuesta Al Rock & Roll, Heroes Del Silencio (bajo)

Autor: Anónimo | 27566 visualizaciones



e           G             e          G 
G)---------------------------------------------------|
D)---------------------------------------------------|
A)-10-9-7--7--7-9-10---10---10---9-7---7--7-9-10---10| 
E)--------7----------10---10-(10)----7----------10---|

         D        e         G            B  
G)----------------------------------------------|
D)-------------------------------------7-9---9--|
A)--10--7-5--5-5-6-7--7-7-9-10---10--10-----9---|
E)10-(10)---5--------7---------10---------------|


( )=note fantasma:aveces se toca aveces no.
nota:las notas fantasmas se escuchan como adornos
en la version que canta bunbury en el disco 
pequeño cavaret ambulante en raresas no se escuchan estas.
el bajo lo pueden transportar a donde quieran yo lo saque ahi 
por que si lo hacia en los primeros trastes algunas notas quedaban 
muy agudas ademas que lo hice con guitarra no con bajo.
para alguna correcion o duda pueden hacerlo al correo

   theedge@correoweb.com

Fuente original: LaCuerda
Colaborador original: the edge [r.c. f.]





Calificar esta versión:
Aviso: Este fichero es trabajo propio de su transcriptor y representa su interpretación personal de la canción. El material contenido en esta página es para exclusivo uso privado, por lo que se prohibe su reproducción o retransmisión, así como su uso para fines comerciales.
Más versiones de Apuesta Al Rock & Roll, Heroes Del Silencio
Apuesta Al Rock & Roll
acordes
Apuesta Al Rock & Roll
tablatura
Apuesta Al Rock & Roll (ver 2)
tablatura
Apuesta Al Rock & Roll (ver 3)
tablatura
Apuesta Al Rock & Roll
bajo
Apuesta Al Rock & Roll (ver 2)
bajo
Apuesta Al Rock & Roll (ver 3)
bajo
Descubre más canciones de Heroes Del Silencio