Craneo Candente, Hermetica (tablatura)

Autor: Anónimo | 24573 visualizaciones

- Intro:
Guitarra 1:
     MI             MI  SI MI SI  MI             FA  FA MI RE   (acordes 5ta)
e|------------------------------------------------------------|
B|------------------------------------------------------------|
G|------------------------------------------------------------|
D|------------------(9)----9-------------------(10)--10-9-7---|
A|------------------(7)-9--7--9-----------------(8)---8-7-5---|
E|---0--0-0-0--0-0-0----7-----7-0--0-0-0--0-0-0---------------|
PM   ...............            ...............

BAJO:
G|--------------------------------------------------------------| 
D|--------------------------------------------------------------|
A|-------------------(7)---7--------------------(8)---8-7--5----|
E|---0--0-0-0--0-0-0----7-----7-0--0-0-0--0-0-0-----------------| 

Sigue asi....

GUITARRA:
      MI             MI  SI MI SI  MI              Sib SI SIb MIb
E|-----------------------------------------------------------------| 
B|-----------------------------------------------------------------|
G|-----------------------------------------------------------------|X3
D|-------------------(9)----9--------------------------------8-----| 
A|-------------------(7)-9--7--9-------------------(8)-9--8--6-----|
E|---0--0-0-0--0-0-0-----7-----7-0--0-0-0--0-0-0---(6)-7--6--------|
 PM  ...............             ...............

.....ahaa   ehhhh  ...  Por tu muerte!!

BAJO:
BAJO:
G|--------------------------------------------------------------| 
D|--------------------------------------------------------------|
A|-------------------(7)---7--------------------------------6---|X3
E|---0--0-0-0--0-0-0----7-----7-0--0-0-0--0-0-0----(6)-7-6------| 

Y despues....
GUITARRA:  
                     Parte A                          **              Parte B
E|---------------|------------|------------|----------||--------------|------------|------------|
B|---------------|------------|------------|----------||--------------|------------|------------|
G|---------------|------------|------------|----------||--------------|------------|------------|
D|---------12/11-|------11/10-|-------10/9-|------(9)-||--------12/11-|------11/10-|-------10/9-|
A|---------10/9--|-------9/8--|-------8-/7-|------(7)-||--------10/9--|-------9/8--|-------8-/7-|
E|-0---0-0-------|0--0-0------|0--0-0------|0--0-0----||-0--0-0-------|0--0-0------|0--0-0------|
pm.......        ......       ......       .......     ......        ......       ......

 rapido      **            **                        Parte C                            SoL5
-------------||------------||---------------|------------|--------------------------------------|
-------------||--REPITE----||---------------|------------|--------------------------------------|
-------------||--PARTE-A---||---------------|------------|-----------------------------------12^|
-----------9~||------------||---------12/11-|------11/10-|-----------------------------------12^|
-------------||------------||---------10/9--|-------9/8--|------8-7-5-------8-7-5-------(5)-/10^|
-0-8-8-7-0---||------------||-0---0-0-------|0--0-0------|-8-7-5------8-7-5-------8-7-5-(3)-/---|
..........                    .......        ......        ..............................

BAJO:  parte a            parte b              parte a       Parte c
G|----|----|----|----||----|----|----|-------||-|-|-|-||---|---|------------------------------| 
D|----|----|----|----||----|----|----|-------||-|-|-|-||---|---|------------------------------|
A|----|----|----|----||----|----|----|-----8-||-|-|-|-||---|---|-----8-7-5-----8-7-5---------/|
E|-0--|-0--|-0--|-0--||-0--|-0--|-0--|-7-8---||0|0|0|0||-0-|-0-|8-7-5-----8-7-5-----8-7-5-(3)-|



VERSO 1:

GUITARRA:  RIFF 1
           MI5      MI FA        MI  RE FA        MI5     MI Fa       MI5    fill 1      fill 2
E|----------------------------------------|------------------------------| |---------|----------|
B|----------------------------------------|------------------------------| |---------|----------|
G|----------------------------------------|------------------------------| |---------|----------|
D|---------9--------9/10---------9---7--10|--------9-------9/10--------9-| |---------|----------| 
A|---------7--------7/-8---------7---5---8|--------7-------7/-8--------7-| |-----8---|----------|
E|--0--0-0---0--0-0------0--0-0-------0---|0---0-0--0--0-0------0--0-0---| |-8-7-----|-8-7-5----|
PM  ......   ......      ......       .   .......   ......      ......       .....     .....

BAJO:  MI                                 RE FA                                  Fill 1
G|---------------------------------------------|----------------------------------------| 
D|---------------------------------------------|----------------------------------------|---|
A|--7--7-7-7---7--7-7-7---7--7-7-7--7---0--5-8-|--7--7-7-7---7--7-7-7---7--7-7-7------8-|   |
E|---------------------------------------------|----------------------------------8-7---|   |X2
       MI                                 RE FA                                  Fill 2     |
G|---------------------------------------------|----------------------------------------|   |
D|---------------------------------------------|----------------------------------------|---|
A|--7--7-7-7---7--7-7-7---7--7-7-7--7---0--5-8-|--7--7-7-7---7--7-7-7---7--7-7-7--------|
E|---------------------------------------------|----------------------------------8-7-5-| 



  RIFF 1 (con fill 1)
Esquivando patrullas 
de la noche enferma,

 RIFF 1 (con fill 2)
tibio amanecer en las llanuras,
sostenido en piernas.

  RIFF 1 (con fill 1)
Bajo el sol mi craneo candente
busco comprender,
  RIFF 1 (con fill 2)
y los registros del tiempo pasado
desvelar mi mente.


ESTRIBILLO:    Riff 2] X2

  GUITARRA:  SI5        FA5      RE5                 SI5                DO5    LA5
e|----------------------------------------------------------------------------------------------|
B|----------------------------------------------------------------------------------------------|
D|----------------------------------------------------------------------------------------------| 
G|----------------------10--------------------7-------------------------------------------------|
A|-9---------------------8--5-5-5--5-5-5--5-5-5---9---------------------10--------------------7-|
E|-7--7-7-7--7-7-7-7-7-7--------------------------7--7-7-7--7-7-7-7-7-7--8--5-5-5--5-5-5--5-5-5-|
PM    ..................    .................      ....................     .................


BAJO:    SI             FA      RE                 SI                   DO    LA 
D|----------------------------------------------------------------------------------------------| 
G|----------------------------------------------------------------------------------------------|
A|-----------------------8--5-5-5--5-5-5--5-5-(5)-----------------------------------------------|
E|-7--7-7-7--7-7-7-7-7-7--------------------------7--7-7-7--7-7-7-7-7-7-(8)-5-5-5--5-5-5--5-5(5)|

SI5                      FA5   RE5
Vivo el destierro del hombre nativo
SI5                 DO5   LA5
bajo las grises magias conquistantes.
SI5                FA5        RE5
Que aun prosiguen traficando el miedo
Si5        DO5      LA5
como ayer gauchos al desierto.


VERSO 2: (igual)


 RIFF 1 (con fill 1)
"ooh oooh ... ooh  ooh  oohh"

 RIFF 1 (con fill 2)
Despierto en los caminos 
de la tierra muerta.

 RIFF 1 (con fill 1)
Me observo junto a mis hermanos
harto de miserias 

 RIFF 1 (con fill 2)
y despojados de todo derecho
por el blanco imperio.



ESTRIBILLO 2: (igual)

[Riff 2] X2

Que en el destierro del hombre nativo 
ha cultivado el culto del gran miedo.
Que aun prosiguen atrofiando vidas
como en la astuta guerra de malvinas





VERSO 3:  RIFF 3

  MI5             FA5       FA# RE5      FA5     DO5  SOL-FA#-MI 
E|----||----------------------------------------------|---------||--|
B|----||----------------------------------------------|---------||--|
G|----||----------------------------------------------|---------||X3|
D|-(9)||--------9/(10)------11-7-(7)------10----------|---------||--|
A|-(7)||--------7/(-8)-------9-5-(5)-------8------10--|-5-4-(2)-||--|
E|-(0)||-0-0-0--------0-0-0-----------0-0----0-0---8--|-3-2-(0)-||--|
 PM     .....        .....           ...    ...

y despues...
  MI5             FA5         
E|--------------------------------------------------------------|
B|--------------------------------------------------------------|
G|--------------------------------------------------------------|
D|-------------9/(10)-------------------------------------------|
A|-(2)---------7/(-8)-------------------------------------------|
E|-(0)--0-0-0---------0-0-0----8-7-5-7-5-3-5-3--8-7-5-7-5-3-5-3-|
        .....        .....     ................................

BAJO:   MI
G|-------------------------------------------------------|  |----------------------------------|
D|-------------------------------------------------------|X4|----------------------------------|
A|--7-7-7--7-7-7--7-7-7--7-7-7--7-7-7--7-7-7--7-7-7--7-7-|  |----------------------------------|
E|-------------------------------------------------------|  |-8-7-5-7-5-3-5-3--8-7-5-7-5-3-5-3-|


"Mi craneo candente,
busco comprender.
No estaba vacio,
mi craneo candente."



ESTRIBILLO 3:
Riff 4
GUITARRA             FA#5                                 DO5                            SI la
e|-----------------------------------------------------|--------------------------------------|
B|-----------------------------------------------------|--------------------------------------| 
G|-----------------------------------------------------|--------------------------------------|X4
D|-----------------------------------------------------|-5------5------5------5------5--5-4-2-|
A|--4-----------------------------------------4------4-|-3--3-3-3--3-3-3--3-3-3--3-3-3--3-2-0-|
E|--2--2-2-2--2-2-2--2-2-2--2-2-2--2-2-2--2-2-2--2-2-2-|--------------------------------------|
PM     ......................................    ...        ...    ...    ...    ...  

BAJO:   FA#                                               DO
G|-----------------------------------------------------|--------------------------------------| 
D|-----------------------------------------------------|--------------------------------------|
A|-----------------------------------------------------|-3--3-3-3--3-3-3--3-3-3--3-3-3--3-2-0-|X4
E|--2--2-2-2--2-2-2--2-2-2--2-2-2--2-2-2--2-2-2--2-2-2-|--------------------------------------| 


[Riff 4]
FA#5    
Miles de inmigrantes 
DO5                Si5 LA5
conforman la ciudad.
FA#5
Han mutado al indio,
DO5             Si5 LA5
quitando su lugar.

(igual)
Sembraron la muerte, 
por toda la extensión
de esta tierra infecta
sin sentido y sin razón


SOLO DE GUITARRA:
BAJO: 

  MI____X4___  DO____X4___          Sol                 SI
G|------------|------------|--| |--------------------|---------------|---|---|----|---|---|---|
D|------------|------------|X4| |--------------------|---------------|DO-|MI-|SOL-|DO-|SI-|SI-|X2
A|-7-7--7-7-7-|------------|--| |--------------------|-2-222-222-222-|---|---|----|---|---|---|
E|------------|-8-8--8-8-8-|--| |3--333--333--333-0--|---------------|---|---|----|---|---|---|


GUITARRA 2: (Machacando)    SOL5                   SI5                      
E|-----|-----|--|  |-------------------------|----------------------|---|---|----|---|---|---|
B|-----|-----|--|  |-------------------------|----------------------|---|---|----|---|---|---|
G|-MI5-|-Do5-|X4|  |-------------------------|----------------------|DO5|MI5|SOL5|DO5|SI5|SI5|X2
D|-----|-----|--|  |-------------------------|-4--------------------|---|---|----|---|---|---|
A|-----|-----|--|  |5------------------------|-2--2-2-2--2-2-2-2-2-2|---|---|----|---|---|---|
E|-----|-----|--|  |3--3-3-3--3-3-3--3-3-3-0-|----------------------|---|---|----|---|---|---| 
                  PM   ...................        ..................

*el MI5 se toca en en traste 7 ....
*todas las notas tocarlas machacando igual que en SOL5 y SI5


SOLO (Guitarra 1)
E|--------------------------------------------------------------|
B|--------------------------------------------------------------| 
G|--------------------------------------------------------------| 
D|--------------------------------------------------------------|
A|--------------------------------------------------------------|
E|--------------------------------------------------------------| 

E|--------------------------------------------------------------|
B|--------------------------------------------------------------| 
G|--------------------------------------------------------------| 
D|--------------------------------------------------------------|
A|--------------------------------------------------------------|
E|--------------------------------------------------------------| 

E|--------------------------------------------------------------|
B|--------------------------------------------------------------| 
G|--------------------------------------------------------------| 
D|--------------------------------------------------------------|
A|--------------------------------------------------------------|
E|--------------------------------------------------------------|
 
E|--------------------------------------------------------------|
B|--------------------------------------------------------------| 
G|--------------------------------------------------------------| 
D|--------------------------------------------------------------|
A|--------------------------------------------------------------|
E|--------------------------------------------------------------| 




VERSO 4: (igual)

 RIFF 1 (con fill 1)
Esquivando patrullas 
de la noche enferma,

 RIFF 1 (con fill 2)
tibio amanecer en las llanuras,
sostenido en piernas.

  RIFF 1 (con fill 1)
Bajo el sol mi craneo candente
busco comprender,
  RIFF 1 (con fill 2)
y los registros del tiempo pasado
desvelar mi mente.


ESTRIBILLO 4: (con RIFF 2)

SI5                      FA5   RE5
Vivo el destierro del hombre nativo
SI5                 DO5   LA5
bajo las grises magias conquistantes.
SI5                FA5        RE5
Que aun prosiguen traficando el miedo
Si5        DO5      LA5
como ayer gauchos al desierto.


Final
  MI5             FA5       FA# RE5      FA5     DO5  SOL-FA#-MI 
E|----------------------------------------------------|---------|
B|----------------------------------------------------|---------|
G|----------------------------------------------------|---------|X1
D|-(9)----------9/(10)------11-7-(7)------10----------|---------|
A|-(7)----------7/(-8)-------9-5-(5)-------8------10--|-5-4-(2)-|
E|-(0)---0-0-0--------0-0-0-----------0-0----0-0---8--|-3-2-(0)-|
 PM      .....        .....           ...    ...

y despues...
  MI5             FA5                                             MI
E|-------------------------------------------------------------------|
B|-------------------------------------------------------------------|
G|-------------------------------------------------------------------|
D|-------------9/(10)---------------------------------------------9--|
A|-(2)---------7/(-8)---------------------------------------------7--|
E|-(0)--0-0-0---------0-0-0----8-7-5-7-5-3-5-3--8-7-5-7-5-3-5-3------|
        .....        .....     ................................

BAJO:   MI
G|------------------------------------------------------|  |-----------------------------------|
D|------------------------------------------------------|X2|-----------------------------------|
A|-7-7-7--7-7-7--7-7-7--7-7-7--7-7-7--7-7-7--7-7-7--7-7-|  |----------------------------------7|
E|------------------------------------------------------|  |-8-7-5-7-5-3-5-3--8-7-5-7-5-3-5-3--|


Mi craneo candente,
busco comprender.


FIN..

Fuente original: LaCuerda
Colaborador original: GUILLE [elguille665@hotmail.com]
Calificar esta versión:
Aviso: Este fichero es trabajo propio de su transcriptor y representa su interpretación personal de la canción. El material contenido en esta página es para exclusivo uso privado, por lo que se prohibe su reproducción o retransmisión, así como su uso para fines comerciales.
Más versiones de Craneo Candente, Hermetica
Craneo Candente
tablatura
Craneo Candente (ver 2)
tablatura
Craneo Candente (ver 3)
tablatura
Craneo Candente
bajo
Descubre más canciones de Hermetica