Craneo Candente, Hermetica (bajo)

Autor: Anónimo | 32506 visualizaciones

Intro.
G|--------------------------------------------------------------| 
D|--------------------------------------------------------------|
A|-------------------(7)---7--------------------(8)---8-7--5----|
E|---0--0-0-0--0-0-0----7-----7-0--0-0-0--0-0-0-----------------| 

G|--------------------------------------------------------------| 
D|--------------------------------------------------------------|
A|-------------------(7)---7--------------------------------6---|X3
E|---0--0-0-0--0-0-0----7-----7-0--0-0-0--0-0-0----(6)-7-6------| 

G|----|----|----|----||----|----|----|-------||-|-|-|-||---|---|------------------------------| 
D|----|----|----|----||----|----|----|-------||-|-|-|-||---|---|------------------------------|
A|----|----|----|----||----|----|----|-----8-||-|-|-|-||---|---|-----8-7-5-----8-7-5---------/|
E|-0--|-0--|-0--|-0--||-0--|-0--|-0--|-7-8---||0|0|0|0||-0-|-0-|8-7-5-----8-7-5-----8-7-5-(3)-|


                                                 Fill 1
G|---------------------------------------------|----------------------------------------| 
D|---------------------------------------------|----------------------------------------|---|
A|--7--7-7-7---7--7-7-7---7--7-7-7--7---0--5-8-|--7--7-7-7---7--7-7-7---7--7-7-7------8-|   |
E|---------------------------------------------|----------------------------------8-7---|   |X2
                                                 Fill 2                                     |
G|---------------------------------------------|----------------------------------------|   |
D|---------------------------------------------|----------------------------------------|---|
A|--7--7-7-7---7--7-7-7---7--7-7-7--7---0--5-8-|--7--7-7-7---7--7-7-7---7--7-7-7--------|
E|---------------------------------------------|----------------------------------8-7-5-| 

Verso 1 (con fill 1 y con fill 2, fijate como van) 


Estribillo 1.
D|----------------------------------------------------------------------------------------------| 
G|----------------------------------------------------------------------------------------------|
A|-----------------------8--5-5-5--5-5-5--5-5-(5)-----------------------------------------------|
E|-7--7-7-7--7-7-7-7-7-7--------------------------7--7-7-7--7-7-7-7-7-7-(8)-5-5-5--5-5-5--5-5(5)|

Verso 2 (como 1)

Estribillo 2 (como estribillo 1)

Verso 3
G|-------------------------------------------------------|  |----------------------------------|
D|-------------------------------------------------------|X4|----------------------------------|
A|--7-7-7--7-7-7--7-7-7--7-7-7--7-7-7--7-7-7--7-7-7--7-7-|  |----------------------------------|
E|-------------------------------------------------------|  |-8-7-5-7-5-3-5-3--8-7-5-7-5-3-5-3-|

Estribillo 3
G|-----------------------------------------------------|--------------------------------------| 
D|-----------------------------------------------------|--------------------------------------|
A|-----------------------------------------------------|-3--3-3-3--3-3-3--3-3-3--3-3-3--3-2-0-|X4
E|--2--2-2-2--2-2-2--2-2-2--2-2-2--2-2-2--2-2-2--2-2-2-|--------------------------------------| 


Solo de guitarra.
    ____X4___   ____X4___         
G|------------|------------|--| |--------------------|---------------|---|---|----|---|---|---|
D|------------|------------|X4| |--------------------|---------------|DO-|MI-|SOL-|DO-|SI-|SI-|X2
A|-7-7--7-7-7-|------------|--| |--------------------|-2-222-222-222-|---|---|----|---|---|---|
E|------------|-8-8--8-8-8-|--| |3--333--333--333-0--|---------------|---|---|----|---|---|---|

Verso 4 (como verso 1)

Estribillo 4 (como estribillo 1)

Fin.
G|------------------------------------------------------|  |-----------------------------------|
D|------------------------------------------------------|X2|-----------------------------------|
A|-7-7-7--7-7-7--7-7-7--7-7-7--7-7-7--7-7-7--7-7-7--7-7-|  |----------------------------------7|
E|------------------------------------------------------|  |-8-7-5-7-5-3-5-3--8-7-5-7-5-3-5-3--|

Fuente original: LaCuerda
Colaborador original: Mariano Manieri [marianoelrusso@hotmail.com]
Calificar esta versión:
Aviso: Este fichero es trabajo propio de su transcriptor y representa su interpretación personal de la canción. El material contenido en esta página es para exclusivo uso privado, por lo que se prohibe su reproducción o retransmisión, así como su uso para fines comerciales.
Más versiones de Craneo Candente, Hermetica
Craneo Candente
tablatura
Craneo Candente (ver 2)
tablatura
Craneo Candente (ver 3)
tablatura
Craneo Candente
bajo
Descubre más canciones de Hermetica