Buscando Razon, Hermetica (tablatura) (ver 2)

Autor: Anónimo | 35641 visualizaciones

Este es el punteo de la canción, no esta
del todo bien(tampoco es tan mal!) pero
para guiarlos al punteo original les va 
a servir y cuando tengan el punteo bien
sacado me lo pasan por mail.

E/---------------10------------------------------------
B/-(7)/12--10-------13-12-10---10-----------------------
G/------------12------------12------12-11-9-11-9-8-9--9-
D/-------------------------------12----------------------
A/-------------------------------------------------------
E/-------------------------------------------------------

E/-------7-8-10-8-7------------------10-8-7---------(10)/15-14
B/7-8-10------------10-8-7-8-10-8-7---------10-8-7-8----------
G/----------------------------------7-------------------------
D/------------------------------------------------------------
A/------------------------------------------------------------
E/------------------------------------------------------------ 

                                                
E/12----12-14-15-14-12-10--12-14-15-14-12-10-12-14-12---------
B/---12-----------------------------------------------12-10/8-
G/------------------------------------------------------------
D/------------------------------------------------------------
A/------------------------------------------------------------
E/------------------------------------------------------------

E/---------7-8-10-8-7----------------------101010-88-77------
B/--7-8-10------------10-8-7-10-8-7---------------------1010-
G/9---------------------------------9-8-7--------------------
D/-----------------------------------------------------------
A/-----------------------------------------------------------
E/-----------------------------------------------------------

E/88-77-----------------------------------------------------
B/------1010-88-77----88-77---------------------------------
G/-----------------99-------99-88-77------------------------
D/-----------------------------------99-88-77/5-------------
A/----------------------------------------------------------
E/----------------------------------------------------------

Intro:

E/----------------------------------------------------------
B-----------------------------------------------------------
G/---------------------------------------------0----------
D/--2-2--0/2/(0)/(2)--2-2—0/2/(0)/(2)--2-2—0/2---2--------
A/--0-0---------------0-0--------------0-0-----------------
E/----------------------------------------------------------

La / en el intro es para indicarles que se toca una vez la
Cuerda con la mano derecha y los otros son toques que se 
hacen solo con la mano izquierda.


Buscando razón
que me impida despreciarte,
nace esta canción 
que tal vez pueda alcanzarte.

De Salto a Montevideo y de Montevideo para todos.
Dedicado para la gente de Salto Uruguay
 de

Fuente original: LaCuerda
Colaborador original: Diego Llovet [dllovet@montevideo.com.uy]
Calificar esta versión:
Aviso: Este fichero es trabajo propio de su transcriptor y representa su interpretación personal de la canción. El material contenido en esta página es para exclusivo uso privado, por lo que se prohibe su reproducción o retransmisión, así como su uso para fines comerciales.
Más versiones de Buscando Razon, Hermetica
Buscando Razón
acordes
Buscando Razon
tablatura
Buscando Razon (ver 2)
tablatura
Buscando Razon (ver 3)
tablatura
Buscando Razón (ver 4)
tablatura
Descubre más canciones de Hermetica