Buscando Razón, Hermetica (tablatura) (ver 4)

Autor: lucasalmafuerte | 30248 visualizaciones

Intro:

E|-------------------------------------------------------------------|
B|-------------------------------------------------------------------|
G|-------------------------------------------------------------------|
D|-0--2---------------0--2---------------0--2--------------0--2--5--0|
A|-------0--2---------------0--2--------------0--2-------------------|
E|------------0--0-0-------------0--0---------------0--0-0-----------|   x4


Riff 1

E|---------------|
B|---------------|
G|---------------|
D|-7-7---9/7-----|
A|-5-5---7/5----2|
E|--------------0| Despues Intro de vuelta



Comentarios del colaborador: Falta todo lo demas pero para romper las bolas en una fiesta sirve.

Calificar esta versión:
Aviso: Este fichero es trabajo propio de su transcriptor y representa su interpretación personal de la canción. El material contenido en esta página es para exclusivo uso privado, por lo que se prohibe su reproducción o retransmisión, así como su uso para fines comerciales.
Más versiones de Buscando Razón, Hermetica
Buscando Razón
acordes
Buscando Razon
tablatura
Buscando Razon (ver 2)
tablatura
Buscando Razon (ver 3)
tablatura
Buscando Razón (ver 4)
tablatura
Descubre más canciones de Hermetica