Atravezando Todo Limte, Hermetica (tablatura) (ver 4)

Autor: Anónimo | 27409 visualizaciones

B D E D F# D D C# B D E E D F# D A
e -|--------------------------------|-----------------------------|
B -|--------------------------------|-----------------------------|
G -|-4-4--7--9--9----7-11-7-7---7-6-|-4-4--7--9----9-7-11--7--2-2-|
D -|-4-4--7--9--9----7-11-7-7---7-6-|-4-4--7--9----9-7-11--7--2-2-|
A -|-2-2--5--7--7----5--9-5-5---5-4-|-2-2--5--7----7-5--9--5--0-0-|
E -|--------------------------------|-----------------------------|
Intro X 4
Bm D A Bm 
A las montañas del noroeste Argentino
te dirigiste, hermano,
Bm D A Bm
dejando grabado por siempre en mi corazón 
aquel fuerte abrazo.
Donde mostraste tu íntima conciencia
de guerrero impecable
que marcha firme a cumplir su destino
sin nada a nadie deber.
Pasó el tiempo y sin saber nada de vos,
corrimos a buscarte.
Soñé con verte libre a la luz del sol
y sé que lo lograste,
mas sólo fueron testigos esas inmensidades.
Historia triste fue vernos vencidos
y sin hallarte volver, tener que volver
a enfrentar caras de gente que no entiende
y que con burlas justifica su ignorancia,
olvidando que la pesadilla
A E Bm 
suele hacerse realidad, y ahí que pasa?
Riff 1
e-|-------------------------|-
B-|-------------------------|-
G-|-------------------------|-
D-|-9-9---12-11---9-9--10-9-|-
A-|-9-9---12-11---9-9--10-9-|-
E-|-7-7---10--9---7-7---8-7-|-
Que el viento lleve esta canción a tus oídos
salvando distancias,
y que en tu estrella observes
que aún sigo de pie.
Es mi esperanza.
Sigo intentando andar el camino
para el cual me formaste,
y aunque sin vos se ha tomado muy duro,
no me dejaré vencer.
No te fallaré!
Es mi egoísmo el que se rebela a perderte
y mi alma no saber cual fue tu suerte
hermano mío sólo resta decirte
que jamás te olvidaré.

-------------------------------------------------------------------------
TAB de www.mundo-guanaco.com.ar

Fuente original: LaCuerda
Colaborador original: Jorge Nuñez [ktupqma2@yahoo.com.ar]
Calificar esta versión:
Aviso: Este fichero es trabajo propio de su transcriptor y representa su interpretación personal de la canción. El material contenido en esta página es para exclusivo uso privado, por lo que se prohibe su reproducción o retransmisión, así como su uso para fines comerciales.
Más versiones de Atravezando Todo Limte, Hermetica
Atravezando Todo Limte
acordes
Atravezando Todo Limte
tablatura
Atravezando Todo Limte (ver 2)
tablatura
Atravezando Todo Limte (ver 3)
tablatura
Atravezando Todo Limte (ver 4)
tablatura
Atravezando Todo Limte
bajo
Descubre más canciones de Hermetica