Atravezando Todo Limte, Hermetica (tablatura)

Autor: Anónimo | 15069 visualizaciones

|-------------------------------------------------------------------|
|-------------------------------------------------------------------| X 2
|-------7--6-------5--4---------------------------------------------|
|--4-4--7--6--4-4--5--4---------------------------------------------|
|--2-2--------2-2---------------------------------------------------|
|-------------------------------------------------------------------|

SOLO
|-------------------------------------------------------------------|
|-----------------------5-------------------5-7---------------------|
|----4-764764764764-6-7---6---6---6---4-6-7-------------------------|
|---------------------------7---7---7-------------------------------|
|-------------------------------------------------------------------|
|-------------------------------------------------------------------|

|-------------------------------------------------------------------|
|-------------------------------------------------------------------|
|----9(11)-79--7-6-7-6-76-------------------------------------------|
|-------------------------7-9---------------------------------------|
|-------------------------------------------------------------------|
|-------------------------------------------------------------------|

|-------------------------------------------------------------------|
|---17(19)-17(19)--17-15-14----14-15-17-15-1415----14-17(19)-1517---|
|---------------------------16------------------16------------------|
|-------------------------------------------------------------------|
|-------------------------------------------------------------------|
|-------------------------------------------------------------------|

CUANDO EMPIEZA EL SOLO LO HACE LIGADO, MANTIENE EL DEDO EN
EL TRASTE 4.LOS CASILLEROS QUE PUSE JUNTOS ES PORQUE ESTAN LIGADOS.
CUANDO ESTIRA LAS CUERDAS EN EL 17 HACE UN EFECTO COMO DE SOSTENER LA
CUERDA ESTIRADA Y HACERLAS TEMBLAR.ESPERO QUE LES SIRVA, NO ES MUY DIFICIL DE HACERLO,
SI LO PRACTICAN LES VA A SALIR, CUALQUIER DUDA ME ESCRIBEN Y LISTO. Y ACUERDENSE DE SERGUIR LUCHANDO POR EL METAL CARAJO!!!!!

Fuente original: LaCuerda
Colaborador original: Matias Castellano [sepulturero66@hotmail.com]
Calificar esta versión:
Aviso: Este fichero es trabajo propio de su transcriptor y representa su interpretación personal de la canción. El material contenido en esta página es para exclusivo uso privado, por lo que se prohibe su reproducción o retransmisión, así como su uso para fines comerciales.
Más versiones de Atravezando Todo Limte, Hermetica
Atravezando Todo Limte
acordes
Atravezando Todo Limte
tablatura
Atravezando Todo Limte (ver 2)
tablatura
Atravezando Todo Limte (ver 3)
tablatura
Atravezando Todo Limte (ver 4)
tablatura
Atravezando Todo Limte
bajo
Descubre más canciones de Hermetica