Barracuda, Heart (tablatura) (ver 3)

Autor: slash27 | 27524 visualizaciones

bn aqui esta mi primer cancion ...
el intro recomiendo que agan palm mutting al raz del puente o tratar de no ahogar el sonido 


e|---------------------------------------------------------------------------|
B|---------------------------------------------------------------------------|
G|----------------------------------------------12~------12\1----------------|
D|-2---2-2-2--2-2-2--2-2-2--2-2-2--2------------12~------12\1----------------|
A|-2---2-2-2--2-2-2--2-2-2--2-2-2--2--4/5------------------------------------|
E|-0---0-0-0--0-0-0--0-0-0--0-0-0--0--2/3------------------------------------|








e|---------------------------------------------------------------------------|
B|---------------------------------------------------------------------------|
G|---------------------------------------------------------------------------|
D|-2---2-2-2--2-2-2--2-2-2--2-2-2--2-2-2--2-2-2--2-2-2--2-2-2--2-2-2--2-2-2--|
A|-2---2-2-2--2-2-2--2-2-2--2-2-2--2-2-2--2-2-2--2-2-2--2-2-2--2-2-2--2-2-2--|
E|-0---0-0-0--0-0-0--0-0-0--0-0-0--0-0-0--0-0-0--0-0-0--0-0-0--0-0-0--0-0-0--|






e|---------------------------------------------------------------------------|
B|---------------------------------------------------------------------------|
G|---------------------------------------------------------------------------|
D|-2-2-2--2-2-2--2-2-2--2-2-2--2-2-2--2-5-------5-4--------------------------|
A|-2-2-2--2-2-2--2-2-2--2-2-2--2-2-2--2-3-------3-2-7-5----------------------|
E|-0-0-0--0-0-0--0-0-0--0-0-0--0-0-0----------------5-3----------------------|






e|---------------------------------------------------------------------------|
B|---------------------------------------------------------------------------|
G|---------------------------------------------------------------------------|
D|--9--7--5--2--2-2--------------------2--2-2----7--7-7-7--------------------|
A|--7--5--3--2--2-2----7-9/10\9-7-5-3--2--2-2----5--5-5-5--7-----------------|
E|---------------------------------------------------------5-----------------|






e|---------------------------------------------------------------------------|
B|--17-15-12-10-8---8--------------------------------------------------------|
G|----------------9----------------------------------------------------------|
D|---------------------------------------------------------------------------|
A|---------------------------------------------------------------------------|
E|---------------------------------------------------------------------------|







e|---------------------------------------------------------------------------|
B|---------------------------------------------------------------------------|
G|---------------------------------------------------------------------------|
D|-2---2-2-2--2-2-2--2-2-2--2-2-2--2-2-2--2-2-2--2-2-2--2-2-2--2-2-2--2-2-2--|
A|-2---2-2-2--2-2-2--2-2-2--2-2-2--2-2-2--2-2-2--2-2-2--2-2-2--2-2-2--2-2-2--|
E|-0---0-0-0--0-0-0--0-0-0--0-0-0--0-0-0--0-0-0--0-0-0--0-0-0--0-0-0--0-0-0--|






e|---------------------------------------------------------------------------|
B|---------------------------------------------------------------------------|
G|-------------------------------------------------------------7-h9p7h9p7h9p7|
D|--5-------5-4-------2-2-2--2-2-2--2-2-2--2-2-2--2-2-2--2-2-2---------------|
A|--3-------3-2-7-5---2-2-2--2-2-2--2-2-2--2-2-2--2-2-2--2-2-2---------------|
E|--------------5-3---0-0-0--0-0-0--0-0-0--0-0-0--0-0-0--0-0-0---------------|






e|---------------------------------------------------------------------------|
B|---------------------------------------------------------------------------|
G|---------------------------------------------------------------------------|
D|-2---2-2-2--2-2-2--2-2-2--2-2-2--2-2-2--2-2-2--2-2-2--2-2-2--2-2-2--2-2-2--|
A|-2---2-2-2--2-2-2--2-2-2--2-2-2--2-2-2--2-2-2--2-2-2--2-2-2--2-2-2--2-2-2--|
E|-0---0-0-0--0-0-0--0-0-0--0-0-0--0-0-0--0-0-0--0-0-0--0-0-0--0-0-0--0-0-0--|





e|---------------------------------------------------------------------------|
B|---------------------------------------------------------------------------|
G|---------------------------------------------------------------------------|
D|--5-------5-4-------2-2-2--2-2-2--2-2-2--2-2-2--2-2-2--2-2-2---------------|
A|--3-------3-2-7-5---2-2-2--2-2-2--2-2-2--2-2-2--2-2-2--2-2-2---------------|
E|--------------5-3---0-0-0--0-0-0--0-0-0--0-0-0--0-0-0--0-0-0---------------|





e|---------------------------------------------------------------------------|
B|---------------------------------------------------------------------------|
G|---------------------------------------------------------------------------|
D|--2-2-2--2-2-2--2-2-2--2-2-2--2-2-2----------------------------------------|
A|--2-2-2--2-2-2--2-2-2--2-2-2--2-2-2-4--5--7--------------------------------|
E|--0-0-0--0-0-0--0-0-0--0-0-0--0-0-0-2--3--5--------------------------------|







e|-11~-7-14~-14-12-14-15~-17-9-10-12-----------------------------------------|
B|---------------------------------------------------------------------------|
G|---------------------------------------------------------------------------|
D|---------------------------------------------------------------------------|
A|---------------------------------------------------------------------------|
E|---------------------------------------------------------------------------|
Calificar esta versión:
Aviso: Este fichero es trabajo propio de su transcriptor y representa su interpretación personal de la canción. El material contenido en esta página es para exclusivo uso privado, por lo que se prohibe su reproducción o retransmisión, así como su uso para fines comerciales.
Más versiones de Barracuda, Heart
Barracuda
acordes
Barracuda
tablatura
Barracuda (ver 2)
tablatura
Barracuda (ver 3)
tablatura
Descubre más canciones de Heart