Barracuda, Heart (tablatura) (ver 2)

Autor: RRENASER | 33696 visualizaciones

e-----------------------------------/
b--------------------0--------------/
g-----------------------------------/
d-----------------------------------/
a-----------------------10<->0------/ sedeslisa el dedo del 10 al 0
E---000-000-00023-------------------/
 
e-----------------------------------/
b-----------------------------------/
g-----------------------------------/
d-----------------------------------/
a---------------7--5----------------/
E-000-000-000---------7-5-3-0-00----/

en la misma cuerda despes de eso
E--0-------------------75--00-0-----/
a----5--7--------7-5----------------/
d---------454-----------------------/

Comentarios del colaborador: porahora asta ahi

Calificar esta versión:
Aviso: Este fichero es trabajo propio de su transcriptor y representa su interpretación personal de la canción. El material contenido en esta página es para exclusivo uso privado, por lo que se prohibe su reproducción o retransmisión, así como su uso para fines comerciales.
Más versiones de Barracuda, Heart
Barracuda
acordes
Barracuda
tablatura
Barracuda (ver 2)
tablatura
Barracuda (ver 3)
tablatura
Descubre más canciones de Heart