Puente, Gustavo Cerati (tablatura) (ver 2)

Autor: Anónimo | 23757 visualizaciones

Hola  ¡!

Bueno estaba revisando esta canción y me di cuenta que faltaba el intro, y pues aquí esta:

Con transporte en el 3er traste:

Intro:

1|-0h2--0h2--0h2--------------------0-----------
2|----3----3----3----------3-------3-3----------
3|-----2----2----4p2-0----0-0-----0-------------
4|-0---------------------2---2------------------
5|----------------------3-----------------------
6|------------------------------3---------------

* Lo anterior se repite varias veces y lo pueden acompañar con otra guitarra rasgueando esto:

1|-2---2---2----------0-0--------0--------------
2|-3---3---3----------3-3--------3--------------
3|-0h2-0h2-0h2—4p2 0--0-0--------0--------------
4|-0---0---0----------2-2--------0--------------
5|-x---x---x----------3-3--2-2-2-2-2------------
6|-x---x---x----------x-x--3-3-3-3-3------------

_____________________________________________
:: roddo ::

(roddo_mty@hotmail.com)

Fuente original: LaCuerda
Colaborador original: roddo [roddo_mty@hotmail.com]
Calificar esta versión:
Aviso: Este fichero es trabajo propio de su transcriptor y representa su interpretación personal de la canción. El material contenido en esta página es para exclusivo uso privado, por lo que se prohibe su reproducción o retransmisión, así como su uso para fines comerciales.
Más versiones de Puente, Gustavo Cerati
Puente
acordes
Puente (ver 2)
acordes
Puente (ver 3)
acordes
Puente (ver 4)
acordes
Puente (ver 5)
acordes
Puente (ver 6)
acordes
Puente (ver 7)
acordes
Puente
tablatura
Puente (ver 2)
tablatura
Puente
bajo
Puente
teclado
Descubre más canciones de Gustavo Cerati