Puente, Gustavo Cerati (tablatura)

Autor: Anónimo | 39427 visualizaciones

INTRO
verso1
FIG1
e|-------1-------1------1----------1----------------1----------|
b|-----1---1-------1------1------1---1----1-------1---1-----1--|
g|-------------------------------------------------------------|
d|---------------------------------------------1----------1----|
a|-----------------------------3--------3----------------------|
E|---1---------1-------1---------------------------------------|

 HOY TE BUSQUÉ......      EN  LA RIMA         QUE DUERME...
         CON TODAS LAS PALABRAS      



verso2
 A#        G                   C         F     A# C
desordené átomos tuyos para hacerte aparecer

 A#                  G       C
un día más..........un día más.


FIG1
ARRIBA EL SOL... ABAJO EL REFLEJO.. DE COMO ESTALLA MI ALMA.
YA ESTÁS AQUI... Y EL PASO QUE DIMOS.. ES CAUSA Y ES EFECTO.

 A#                 G
cruza el amor.. y yo cruzaré los dedos...



Coro
     F   A#     G    A#  F   A#   G   A#
Y   GRACIAS   POR   VENIR
 
 F   A#     G    A#  F   A#   G   A#
 GRACIAS   POR   VENIR

 
   C     D        A#            e|-----6---5----3---1---0-----|
     adorable    puente       b|-----0---0----0---0---0-----|
 C          D             A#
  se ha creado entre los dos


e|-------------------------------------------------------------|
b|--------------------------------------------3----------------|
g|--3-/--5--5-5---3-/--5--5-5---3-/--5--5-5-------5--3---------|
d|------------------------------------------------------5------|
a|-------------------------------------------------------------|
E|-------------------------------------------------------------|

EL RESTO SE REPITE.
-------------------------------------------------------------------------

Panamá coco

Fuente original: LaCuerda
Colaborador original: Juan de leon [greenclown@yahoo.com]
Calificar esta versión:
Aviso: Este fichero es trabajo propio de su transcriptor y representa su interpretación personal de la canción. El material contenido en esta página es para exclusivo uso privado, por lo que se prohibe su reproducción o retransmisión, así como su uso para fines comerciales.
Más versiones de Puente, Gustavo Cerati
Puente
acordes
Puente (ver 2)
acordes
Puente (ver 3)
acordes
Puente (ver 4)
acordes
Puente (ver 5)
acordes
Puente (ver 6)
acordes
Puente (ver 7)
acordes
Puente
tablatura
Puente (ver 2)
tablatura
Puente
bajo
Puente
teclado
Descubre más canciones de Gustavo Cerati