Crimen, Gustavo Cerati (tablatura)

Autor: Anónimo | 21845 visualizaciones

Hola a todos, aqui les dejo una pequeña modificación que me gusto mas...
Tiene un intro de piano que lo adapte para guitarra
Espero que les guste... Cualquier sugerencia envíenme un mensaje a mi
Facebook Agustin Nicolo


Estrofa 1 (Solo arpegio):


PARTE DE PIANO EN GUITARRA


            E
e|--------------------------|
B|--0-----0-----0-----0-----|
G|--1-----1-----1-----1-----|
D|-----2-----2-----2-----2--|
A|--------------------------|
E|--0-----------------------|

            C                           D
e|--------------------------|--2-----2-----2-----2-----|
B|--1-----1-----1-----1-----|--3-----3-----3-----3-----|
G|--0-----0-----0-----0-----|-----2-----2-----2-----2--|
D|-----2-----2-----2-----2--|--0-----------------------|
A|--3-----------------------|--------------------------|
E|--------------------------|--------------------------|
    La    espera    me    agoto

           G#m                          A
e|--------------------------|--------------------------|
B|--4-----4-----4-----4-----|--2-----2-----2-----2-----|
G|--4-----4-----4-----4-----|--2-----2-----2-----2-----|
D|-----6-----6-----6-----6--|-----2-----2-----2-----2--|
A|--------------------------|--0-----------------------|
E|--4-----------------------|--------------------------|
    No   se   nada   de   vos

            F#m                         B
e|--------------------------|--------------------------|
B|--2-----2-----2-----2-----|--4-----4-----4-----4-----|
G|--2-----2-----2-----2-----|--4-----4-----4-----4-----|
D|-----4-----4-----4-----4--|-----4-----4-----4-----4--|
A|--------------------------|--2-----------------------|
E|--2-----------------------|--------------------------|
    Dejaste   tanto   en   mi


Estrofa 2 (El mismo arpegio que la primera estrofa):


            E
e|--------------------------|
B|--0-----0-----0-----0-----|
G|--1-----1-----1-----1-----|
D|-----2-----2-----2-----2--|
A|--------------------------|
E|--0-----------------------|


            C                           D
e|--------------------------|--2-----2-----2-----2-----|
B|--1-----1-----1-----1-----|--3-----3-----3-----3-----|
G|--0-----0-----0-----0-----|-----2-----2-----2-----2--|
D|-----2-----2-----2-----2--|--0-----------------------|
A|--3-----------------------|--------------------------|
E|--------------------------|--------------------------|
    En   llamas   me  acosté

           G#m                          A
e|--------------------------|--------------------------|
B|--4-----4-----4-----4-----|--2-----2-----2-----2-----|
G|--4-----4-----4-----4-----|--2-----2-----2-----2-----|
D|-----6-----6-----6-----6--|-----2-----2-----2-----2--|
A|--------------------------|--0-----------------------|
E|--4-----------------------|--------------------------|
    En   un   lento   degradé

            F#m                         B
e|--------------------------|--------------------------|
B|--2-----2-----2-----2-----|--4-----4-----4-----4-----|
G|--2-----2-----2-----2-----|--4-----4-----4-----4-----|
D|-----4-----4-----4-----4--|-----4-----4-----4-----4--|
A|--------------------------|--2-----------------------|
E|--2-----------------------|--------------------------|
    Supe    que    te    perdi


Coro (Solo rasgueo hacia abajo):

         F#m          B
Que otra cosa puedo hacer
     C#m   Am     G#m
sin olvido moriré
   F#m             G#m
y otro crimen quedará
   F#m
otro crimen quedará
          E
sin resolver




    C            D
Una rápida traición
    G#m          A
salimos del amor
    F#m          B
tal vez me lo busqué

E
    C            D
Mi ego va a estallar
    G#m          A
ahí donde no estás
    F#m          B
los celos otra vez

          F#m  A       B
Que otra cosa puedo hacer
   C#m     Am  G#m
sin olvido moriré
   F#
y otro crimen quedará
A
otro crimen quedará
             E
sin resolver

E           A      B
Uh uh uh uh uh uh uh

E           A      B
Uh uh uh uh uh uh uh


E/G#        A      B
Uh uh uh uh uh uh uh
C#m      C6     C#m
Uh uh uh uh uh uh uh

E    A     B
     No lo sé.
        E
¿Cuánto falta?
A     B
No lo sé.
           E/G#
Si es muy tarde,
A     B
No lo sé.
         C#m
Si no olvido,
C6   C#m
Moriré.

           F#              A
¿Qué otra cosa puedo hacer?
           F#              A
¿Qué otra cosa puedo hacer?
       F#        A       F#     A
Ahora sé lo que es perder.
F#m                     G#m
    Y otro crimen quedará…
    F#m                           E
Oh, otro crimen quedará sin resolver.
Calificar esta versión:
Aviso: Este fichero es trabajo propio de su transcriptor y representa su interpretación personal de la canción. El material contenido en esta página es para exclusivo uso privado, por lo que se prohibe su reproducción o retransmisión, así como su uso para fines comerciales.
Más versiones de Crimen, Gustavo Cerati
Crimen
acordes
Crimen (ver 2)
acordes
Crimen (ver 3)
acordes
Crimen
tablatura
Crimen
bajo
Descubre más canciones de Gustavo Cerati