Crimen, Gustavo Cerati (bajo)

Autor: Anónimo | 39961 visualizaciones

Verso 1 Piano solo

Verso 2
G|-----------------|-----------------|
D|-----------------|-----------------|
A|-7-------3-------|-5---------------|
E|-----------------|---------4-------|

G|-----------------|-----------------|
D|-----------------|-----------------|
A|-----------------|-2-------2222222-|
E|-5-------2-------|-----------------|

Coro
G|------------------|------------------|
D|------------------|------------------|
A|---------22222222-|-44443333-2222222-|
E|-22222222---------|------------------|

G|-------------------|------------------|
D|-------------------|------------------|
A|-------------------|---------77777777-|
E|-22222222-44444444-|-22222222---------|

Verso 3
G|-------------------|------------------|
D|-------------------|------------------|
A|-77777777-33333333-|-55555555---------|
E|-------------------|---------44444444-|

G|-------------------|-------------------|
D|-------------------|-------------------|
A|-------------------|-22222222-77777777-|
E|-5555-5-4-22222222-|-------------------|

Verso 4
G|-------------------|-------------------|
D|-------------------|-------------------|
A|-33333333-55555555-|-------------------|
E|-------------------|-44444444-5555-5-4-|

G|------------------|----------|
D|------------------|----------|
A|---------22222222-|-22222222-|
E|-22222222---------|----------|

Coro 2
G|-------------------|--------------------|
D|-------------------|--------------------|
A|----------22222222-|-4444-3333-44444444-|
E|-2222-5555---------|--------------------|

G|-------------------|----------------------------------|
D|-------------------|----------------------------------|
A|-------------------|-77777777/19-19-19-19-19-19-19-19-|
E|-22222222-55555555-|----------------------------------|

Puente
G|-------------------|-------------------|
D|-------------------|-------------------|
A|-7777--------------|-7777--------------|
E|-----5555-77777777-|-----5555-77777777-|

G|-------------------|--------------------|
D|-------------------|--------------------| x2
A|----------22222222-|-4444-5555-44444444-|
E|-4444-5555---------|--------------------|


Outro
G|-----------------|-----------------|
D|-----------------|-----------------|
A|-----------------|-----------------|
E|-2222222-5555555-|-2222222-5555555-|

G|-----------------|-----------------|
D|-----------------|-----------------|
A|-----------------|-----------------|
E|-2222222-5555555-|-2222222-5555555-|

G|-----------------|-----------------|-------------|
D|-----------------|-----------------|-------------|
A|-----------------|-----------------|-7~----------|
E|-2222222-4444444-|-2222222-4444444-|-------------|
Calificar esta versión:
Aviso: Este fichero es trabajo propio de su transcriptor y representa su interpretación personal de la canción. El material contenido en esta página es para exclusivo uso privado, por lo que se prohibe su reproducción o retransmisión, así como su uso para fines comerciales.
Más versiones de Crimen, Gustavo Cerati
Crimen
acordes
Crimen (ver 2)
acordes
Crimen (ver 3)
acordes
Crimen
tablatura
Crimen
bajo
Descubre más canciones de Gustavo Cerati