Knocking´ On Heaven´s Door, Guns N´ Roses (tablatura) (ver 3)

Autor: cursi121c | 14806 visualizaciones

KNOCKING ON HEAVEN?S DOOR

COMPOSITOR: BOB DYLAN
ARTISTA: GUNS AND ROSES
CANCION: KNOCKING ON HEAVEN?S DOOR
ALBUM: USE YOUR ILLUSION II 
AFINACION: Eb/Mib o D#/Re#
DURACION: 5:35

TRANSCRIPTOR: EDUARDO LEON GARCIA
E-MAIL: eduardo_leon_garcia@hotmail.com


MI DESCRIPCION:

Esta es una cancion magnifica y una de mis favoritas y por ese motivo
Decidí transcribirla esperando que les sirva a ustedes y les haga de mucho provecho,
Este es mi primera transcripcion espero que le guste mucho, es un 95% exacta aproximadamente,
Espero sus agradecimiento y suerte. Probablemente transcriba la 2da guitarra pero estoy en eso...
BYE

Aguante Guns And Roses



INTRO                    SEGUNDO: 00:01
   
 G          D              C 
Eb|--3--3-----------0-2----------------------0---------------|
Bb|--3----3--3-----3---3--2------------1---------1---------1-|
Gb|--0------0-----2------2-----0-----0---0------0---0--------|
Db|--0-----------0-------------0h2---------2---2----0h2------|
Ab|--2-----------------------------3---------------------3---|
Eb|--3-------------------------------------------------------|

    G          D              C 
Eb|--3--3-----------0-2--------------------------------------|
Bb|--3----3--3-----3---3--2-------1-----1----1---1-1-1-0-----|
Gb|--0------0-----2------2-------0-0--------0-0--0-0-0-0-----|
Db|--0-----------0--------------2---2------2-----2-2-2-0-----|
Ab|--2-------------------------3-----3-----------3-3-3-0-----|
Eb|--3-------------------------------------------------------|

                     SEGUNDO: 00:17          
 
      G5                   D5                  C5                                      
Eb|----------------------------------------------------------|
Bb|---------------------------------------------?------------|
Gb|------------------------7-------------------5--XX5----XX--|
Db|---5--------------------7-------------------5?-XX5----XX--|  
Ab|---5--------------------5-------------------3?-XX3----XX--|
Eb|---3------------------------------------------------------|
      
      G5                    D5                  C5                             
Eb|----------------------------------------------------------|
Bb|----------------------------------------------?-----------|
Gb|-------------------------7-------------------5------------|
Db|---5---------------------7-------------------5------------|  
Ab|---5---------------------5-------------------3------------|
Eb|---3------------------------------------------------------|









VOZ              SEGUNDO: 00:31
  
     G     D                    Am                                                    
Eb|--3-----2------2-2-------------------------0-----------------|
Bb|--3-----3----------3---3-----1?----0h1---------1-------------|
Gb|--0-----2---2--------2-------2----2----2------2----2---0---0-|
Db|--0-----0--------------------2-----------2---2-------2---2---|
Ab|--2-----0--------------------0-------------------------------|
Eb|--3----------------------------------------------------------|

     G           D              C 
Eb|-----3-----------0-2-----------------------------------------|
Bb|--3----3--3-----3---3--2-----1-----1--------1----------------|
Gb|--0------0-----2------2------0----0--0-----0?--0-------------|
Db|--0-----------0--------------2------------2-------2-2--------|
Ab|--2--------------------------3-----------3-------------------|
Eb|--3----------------------------------------------------------|

     G        D                 Am  
Eb|----3------2-----2-2-----------------------1-------0---------|
Bb|--3--3-3---3---3------3---3--1?---0h1-------?--1-------1-0h1-|
Gb|--0---0----2------------2----2---2-----2---------2-----------|
Db|--0--------0-----------------2-----------2-------------------|
Ab|--2--------------------------0-------------------------------|
Eb|--3----------------------------------------------------------|

     G          D               C 
Eb|-----3-------2----2-2----------------------------------------|
Bb|--3----3--3--3--3-----3---3--1-----1-----1---1---------------|
Gb|--0------0---2----------2----0----0-----0?--0----0---0-------|
Db|--0----------0---------------2---------2---2---2---2---------|
Ab|--2--------------------------3--------3---3------------------|
Eb|--3----------------------------------------------------------|
             
      






                  MIN/SEGUNDO:01:00
    
      G5                    D5                C5                                                                                                     
Eb|-----------------------------------------------------------|
Bb|--------------------------------------------?--------------|
Gb|-------------------------7-----------------5-------XX-5-5--|
Db|---5---------------------7-----------------5?------XX-5-5--|
Ab|---5---------------------5-----------------3-------XX-3-3--|
Eb|---3-------------------------------------------------------|

      G5                   D5                C5                  
Eb|-----------------------------------------------------------|
Bb|-----------------------------------------------------------|
Gb|------------------------7-----------------5-------XX-5-5---|
Db|---3---XX---------------7-----------------5-------XX-5-5---|
Ab|---3---XX---------------5-----------------3-------XX-3-3---|
Eb|---5---XX--------------------------------------------------|
           
      G5                    D5                C5                         
Eb|-----------------------------------------------------------|
Bb|--------------------------------------------?--------------|
Gb|-------------------------7-----------------5-------XX-5-5--|
Db|---5---------------------7-----------------5?------XX-5-5--|
Ab|---5---------------------5-----------------3-------XX-3-3--|
Eb|---3-------------------------------------------------------|
       
      G5                    D5                C5                    
Eb|-----------------------------------------------------------|
Bb|--------------------------------------------?--------------|
Gb|-------------------------7-----------------5---------------|
Db|---5---------------------7-----------------5?--------------| 
Ab|---5---------------------5-----------------3---------------|
Eb|---3-------------------------------------------------------|









     
SOLO I             MIN/SEGUNDO: 01:30                                                                                                                                                              

Eb|--------------------------------------------------------|
Bb|-------------------------15-----------------------------|
Gb|--12?14b16---14p12-14-------14b16--12-12----------------|
Db|--------------------------------------------------------|
Ab|--------------------------------------------------------|
Eb|--------------------------------------------------------|

Eb|--------------------------------------------------------|
Bb|-------------15/17--15---13p12--13b15-13p12-13p12-------|
Gb|---------12?--------------------------------------------|
Db|--12/14--------------------------------------------14---|
Ab|--------------------------------------------------------|
Eb|--------------------------------------------------------|

Eb|--------15------------------15---15b17-15b17-15b17--15--|
Bb|--12-13----13--12---15/17-------------------------------|
Gb|--------------------------------------------------------|
Db|--------------------------------------------------------|
Ab|--------------------------------------------------------|
Eb|--------------------------------------------------------|

Eb|--20b22?-20p19-20-19-20b22?--20-20?20-------------------|
Bb|--------------------------------------------------------|
Gb|--------------------------------------------------------|
Db|--------------------------------------------------------|
Ab|--------------------------------------------------------|
Eb|--------------------------------------------------------|

Eb|--------------------------------------(15)--------------|
Bb|--17-----15brbrbrbr-------------------------------------|
Gb|--------------------14brbrbrbr---12---------------------|
Db|--------------------------------------------------------|
Ab|--------------------------------------------------------|
Eb|--------------------------------------------------------|


VOZ              MIN/SEGUNDO: 01:59 
     G         D               Am  
Eb|----3-------2----2-2---------------------0------------------|
Bb|--3---3--3--3--------3---3--1?---0h1---------1-----1-1------|
Gb|--0----0----2--2-------2----2---2----2------2----2-----2-2--|
Db|--0---------0---------------2----------2---2----------------|
Ab|--2-------------------------0-------------------------------|
Eb|--3---------------------------------------------------------|
   
     G          D               C 
Eb|-----3-------2----2-2-----------------------------------|
Bb|--3----3--3--3--2-----3---3--1-----1--------------------|
Gb|--0------0---2----------2----0----0-0-----?--0--0--0--0-|
Db|--0----------0---------------2--------2--2-2--2--2--2---|
Ab|--2--------------------------3---------3----------------|
Eb|--3-----------------------------------------------------|

     G       D               Am  
Eb|----3-----2----3-2-2--------------------1---------------|
Bb|--3--3-3--3--3-------3-3--1?---0h1-------?--1---1-1-----|
Gb|--0---0---2---------------2---2-----2------2--2-----2-2-|
Db|--0-------0---------------2-----------2---2-------------|
Ab|--2-----------------------0-----------------------------|
Eb|--3-----------------------------------------------------|

     G          D               C
Eb|-----3-------2----2-2-----------------------------------|
Bb|--3----3--3--3--------3?-3---1-----1-----1---1---1------|
Gb|--0------0---2--2-------2----0----0-----0?--0---0-------|
Db|--0----------0---------------2---------2---2---2--------|
Ab|--2--------------------------3--------3---3---3---------|
Eb|--3-----------------------------------------------------|

      
              
                 MIN/SEGUNDO:  02:28

      G5                    D5                C5                                                                                                                                                                Eb|--------------------------------------------------------|
Bb|-------------------------7-----------------5?5-XX-5-5---|
Gb|-------------------------7-----------------5-5-XX-5-5---|
Db|---5---------------------5-----------------3?3-XX-3-3---| 
Ab|---5----------------------------------------------------|
Eb|---3----------------------------------------------------|

      G5                    D5              C5                     
Eb|--------------------------------------------------------|
Bb|-------------------------7---------------5-XX-5-XX-5-XX-|
Gb|-------------------------7---------------5-XX-5-XX-5-XX-|
Db|---5---------------------5---------------3?XX-3-XX-3-XX-| 
Ab|---5----------------------------------------------------|
Eb|---3----------------------------------------------------|

      G5                    D5            C5                  
Eb|--------------------------------------------------------|
Bb|-------------------------7-------------5?-5-5-5-XX-5-5--|
Gb|-------------------------7-------------5--5-5-5-XX-5-5--|
Db|---5---------------------5-------------3?-3-3-3-XX-3-3--| 
Ab|---5----------------------------------------------------|
Eb|---3----------------------------------------------------|

      G5                    D5                C5                      
Eb|--------------------------------------------------------|
Bb|-------------------------7-----------------5?5-XX-5-5---|
Gb|-------------------------7-----------------5-5-XX-5-5---|
Db|---5---------------------5-----------------3?3-XX-3-3---| 
Ab|---5----------------------------------------------------|
Eb|---3----------------------------------------------------|







SOLO II            MINUTO/SEGUNDO: 02:55


Eb|---------------12--15-14b16 14-14b16?-14p12-14-12-------|
Bb|--15--13-12-13------------------------------------------|
Gb|--------------------------------------------------------|
Db|--------------------------------------------------------|
Ab|--------------------------------------------------------|
Eb|--------------------------------------------------------|

Eb|--------15-----15---------------------------------------|
Bb|--15b17----15b7---15b17-----13-15-----------------------|
Gb|-------------------------------------14b16--------------|
Db|--------------------------------------------------------|
Ab|--------------------------------------------------------|
Eb|--------------------------------------------------------|

Eb|---15---------------------15----------------------------|
Bb|------15-15------------------15-------------------------|
Gb|-------------12----14b16-------14b16-14b16--12----------|
Db|--------------------------------------------------------|
Ab|--------------------------------------------------------|
Eb|--------------------------------------------------------|

Eb|-------------15?----17b19-17-15-17-15-------------------|
Bb|----------15----15--------------------------------------|
Gb|--15/17-------------------------------------------------|
Db|--------------------------------------------------------|
Ab|--------------------------------------------------------|
Eb|--------------------------------------------------------|

Eb|--20-19-20-20b22-20-19-20-20b22-20-19-20-22b24?22b24----|
Bb|--------------------------------------------------------|
Gb|--------------------------------------------------------|
Db|--------------------------------------------------------|
Ab|--------------------------------------------------------|
Eb|--------------------------------------------------------|

Eb|--22----------22----------------------------------------|
Bb|-----20-22b24===r22---20-22b24?-22-20-------------------|
Gb|--------------------------------------------------------|
Db|--------------------------------------------------------|
Ab|--------------------------------------------------------|
Eb|--------------------------------------------------------|


Eb|--------------------------------------------------------|
Bb|--19b21r19-?19b21-19p17-19-17-17===---------------------|
Gb|--------------------------------------------------------|
Db|--------------------------------------------------------|
Ab|--------------------------------------------------------|
Eb|--------------------------------------------------------|

Eb|--------------------------------------------------------|
Bb|--20-17-20-17-------------------------------------------|
Gb|----------------19-17-19-16-----16===-12===-11===-11b---|
Db|--------------------------------------------------------|
Ab|--------------------------------------------------------|
Eb|--------------------------------------------------------|

Eb|--------------------------------------------------------|
Bb|--------------------------------------------------------|
Gb|---9===-7===---5p4--------------------------------------|
Db|--------------------5======-----------------------------|
Ab|--------------------------------------------------------|
Eb|--------------------------------------------------------|
               
                                                                               







               MINUTO/SEGUNDO: 04:08

Eb|---------------------------------------------------------|                
Bb|---------------------------------------------------------|
Gb|-12-12-12-12-12-12-12-12-11-11-11-11-11-11-11-11/(9)-----|
Db|-12-12-12-12-12-12-12-12-12-12-12-12-12-12-12-12/(10)----|
Ab|---------------------------------------------------------|
Eb|---------------------------------------------------------|
                                                                    
              MINUTO/SEGUNDO: 04:23

Eb|---------------------------------------------------------|                
Bb|-12-12-12-12-12-12-12-12-10-10-10-10-10-10-10-10/(8)-----|
Gb|---------------------------------------------------------|
Db|-12-12-12-12-12-12-12-12-12-12-12-12-12-12-12-12/(10)----|
Ab|---------------------------------------------------------|
Eb|---------------------------------------------------------|
                                                                                
              MINUTO/SEGUNDO: 04:38

Eb|---------------------------------------------------------|
Bb|-15-15-15-15-15-15-15-15-15-15-15-15-15-15-15-15/(13)----|
Gb|---------------------------------------------------------|
Db|-17-17-17-17-17-17-17-17-16-16-16-16-16-16-16-16/(14)----|
Ab|---------------------------------------------------------|
Eb|---------------------------------------------------------|                                                                    

              MINUTO/SEGUNDO: 04:45

Eb|---------------------------------------------------------|        
Bb|-12-12/--------------------------------------------------|
Gb|---------------------------------------------------------|
Db|-12-12/--------------------------------------------------|
Ab|---------------------------------------------------------|
Eb|---------------------------------------------------------|

       

                 MINUTO/SEGUNDO: 04:48
          C5   
Eb|--------------------------------------------------------|
Bb|--------------------------------------------------------|
Gb|-------2------2-2-2-2-----------------------------------|
Db|-------2------2-2-2-2-----------------------------------|
Ab|-------3------3-3-3-3-----------------------------------|
Eb|-/15----------------------------------------------------|

                   
                 MINUTO/SEGUNDO: 04:52
      G5                    D5             C5                                                                                        
Eb|--------------------------------------------------------|
Bb|-------------------------7--------------5?--XX-5-XX-5-5-|
Gb|-------------------------7--------------5---XX-5-XX-5-5-|
Db|---5---------------------5--------------3?--XX-3-XX-3-3-| 
Ab|---5----------------------------------------------------|
Eb|---3----------------------------------------------------|
     

      G5                    D5                 C5                          
Eb|--------------------------------------------------------|
Bb|-------------------------7------------------5?5-XX-5-5--|
Gb|-------------------------7------------------5-5-XX-5-5--|
Db|---5---------------------5------------------3?3-XX-3-3--| X2
Ab|---5----------------------------------------------------|
Eb|---3----------------------------------------------------|

   
      G5                    D5                    C5                              
Eb|--------------------------------------------------------|
Bb|-------------------------7---------------------5--------|
Gb|-------------------------7---------------------5--------|
Db|---5---------------------5---------------------3?-------| 
Ab|---5----------------------------------------------------|
Eb|---3----------------------------------------------------|

                   MINUTO/SEGUNDO: 05:21 
    C5                     G5                                                                                                                        
Eb|-------------------------------------------------------|
Bb|-------------------------------------------------------|
Gb|--5--5--5--5-------------------------------------------|
Db|--5--5--5--5------------(5)----------------------5-----|
Ab|--3--3--3--3------------(5)----------------------5-----|
Eb|------------------------(3)----------------------3-----|

                              FIN
Calificar esta versión:
Aviso: Este fichero es trabajo propio de su transcriptor y representa su interpretación personal de la canción. El material contenido en esta página es para exclusivo uso privado, por lo que se prohibe su reproducción o retransmisión, así como su uso para fines comerciales.
Más versiones de Knocking´ On Heaven´s Door, Guns N´ Roses
Knocking´ On Heaven´s Door
acordes
Knocking´ On Heaven´s Door (ver 2)
acordes
Knocking´ On Heaven´s Door
tablatura
Knocking´ On Heaven´s Door (ver 2)
tablatura
Knocking´ On Heaven´s Door (ver 3)
tablatura
Knocking´ On Heaven´s Door
bajo
Descubre más canciones de Guns N´ Roses