Knocking´ On Heaven´s Door, Guns N´ Roses (acordes) (ver 2)

Autor: gilate | 33467 visualizaciones

amcdg
 INTRO:
e|2-2--------------2-0--------------------0---------------
B|2---2----------3-----3----------------1---1-------1-----
G|0-----0------2---------2------------0-------0---0---0---
D|0----------0----------------------2-------------------2-
A|2---------------------------0-2-3-----------------------
E|3-------------------------------------------------------
                        x2
G      D                  Am
 Mama take this badge from me 
G        D           C
 I cant use it anymore 
G       D                     Am
 Its getting dark too dark to see 
G       D                           C
 Feels like Im knockin on heavens door 
G              D                  C
 Knock-knock-knockin on heavens door 
G              D                  C
 Knock-knock-knockin on heavens door 
G              D                  C
 Knock-knock-knockin on heavens door 
G              D                  C
 Knock-knock-knockin on heavens door 

Solo 1:
e-------------------------------------------------------------
b---------------15-------------------15^^-15---13p12-13^^-13--
g--12-14^-12-14----14^-12-12~------12-------------------------
d-----------------------------13/14---------------------------
a-------------------------------------------------------------
E|-------------------------------------------------------------

e----------------------15-------------15-17^-17^--17^-15------
b--13p12-13-12----12-13---13-12---/17-------------------------
g-------------------------------------------------------------
d--------------14---------------------------------------------
a-------------------------------------------------------------
E|-------------------------------------------------------------

e--20^^-20p19-20-19-20^^-20p19-20-19--------------------15----
b------------------------------------17--15^~~----------------
g---------------------------------------------14^~~-12~~------
d-------------------------------------------------------------
a-------------------------------------------------------------
E|-------------------------------------------------------------


G      D                   C
 Mama put my guns in the ground 
G         D          C
 I cant shoot them anymore 
G           D                    C
 That cold black cloud is comin down 
G        D                         C 
 Feels like Im knockin on heavens door 
G              D                   C
Knock-knock-knockin on heavens door 
G              D                   C
Knock-knock-knockin on heavens door 
G              D                  C
Knock-knock-knockin on heavens door 
G              D                  C
Knock-knock-knockin on heavens door 

Solo 2:
e--15^-14-14p15-14-12p14----15---15---------------------17/19-
b------------------------15^--15^--15^-13/12------15/17-------
g-------------------------------------------14-12-------------
d-------------------------------------------------------------
a-------------------------------------------------------------
E|-------------------------------------------------------------

e--11-10-11-12^-11-10-11-12^11-10-11-12^11-10-------
b-----------------------------------------------19/17-15-
g--------------------------------------------------------
d--------------------------------------------------------
a--------------------------------------------------------
E|--------------------------------------------------------

e------------------------------------------
b------------------------------------------
g--14/16-----------------------------------
d--------17-16-16p17-16/14-----------------
a-------------------------15/17-15---------
E|----------------------------------19-15---


 

Comentarios del colaborador: esta vercion la arme con solo acorde y intro es como yo la toco (en el solo 2 en la segunda tab es en verdad 23 22 23 24 asi pero la puse asi porque algunas guitarras no llegan asta el 24

Calificar esta versión:
Aviso: Este fichero es trabajo propio de su transcriptor y representa su interpretación personal de la canción. El material contenido en esta página es para exclusivo uso privado, por lo que se prohibe su reproducción o retransmisión, así como su uso para fines comerciales.
Más versiones de Knocking´ On Heaven´s Door, Guns N´ Roses
Knocking´ On Heaven´s Door
acordes
Knocking´ On Heaven´s Door (ver 2)
acordes
Knocking´ On Heaven´s Door
tablatura
Knocking´ On Heaven´s Door (ver 2)
tablatura
Knocking´ On Heaven´s Door (ver 3)
tablatura
Knocking´ On Heaven´s Door
bajo
Descubre más canciones de Guns N´ Roses