Knocking On Heavens Door, Guns N´ Roses (bajo)

Autor: juanderdoy | 20507 visualizaciones

Intro: 
G:-----------------------------------
D:-----------------------------------
A:-------5---3----------------5---3--
E:---3--------------------3----------

Verso:
G:------------------------------------
D:------------------------------------
A:-------3-4-5---3---3-3-3-3-3-3-2----
E:---3--------------------------------


G:------------------------------------
D:------------------------------------
A:-------3-4-5---3----0-3-3--2---------
E:---3--------------------------------


G:------------------------------------
D:------------------------------------
A:-------3-4-5---3---3-3-3-3-3-3-2----
E:---3--------------------------------


G:------------------------------------------------------
D:------------------------------------------------------
A:------3-4-5----3-3-3-3-3-3-3-3s-10-10-10-10-10-10--9--
E:--3-------------------------------------------------10

Estribillo:
G:-------------------------------------
D:-------------------------------------
A:-------3-4-5---3----0-3-3--2---------
E:---3---------------------------------


G:-------------------------------------
D:-------------------------------------
A:-------3-4-5---3---3-3-3-3-3-3-2-----
E:---3---------------------------------


G:-------------------------------------------------
D:-------------------------------------------------
A:-------3-4-5---3---0-3-3--2----------------------
E:---3---------------------------------------------


G:-----------------------------------------------------
D:-----------------------------------------------------
A:-------3-4-5---3-3-3-3-3-3-3-3s-10-10-10-10-10-10-9--
E:---3-----------------------------------------------10

Repite esto hasta llegar a esta nueva parte:

G:---------------------------------------------
D:---------------------------------------------
A:---------5-5---3-3---3-3-3-3-3-3-2-----------
E:---3-3---------------------------------------

G:---------------------------------------------
D:---------------------------------------------
A:---------5-5---3-3---0-3-3--2----------------
E:---3-3---------------------------------------

Y lo repite hasta el final de la cancion

Comentarios del colaborador: .

Calificar esta versión:
Aviso: Este fichero es trabajo propio de su transcriptor y representa su interpretación personal de la canción. El material contenido en esta página es para exclusivo uso privado, por lo que se prohibe su reproducción o retransmisión, así como su uso para fines comerciales.
Más versiones de Knocking On Heavens Door, Guns N´ Roses
Knocking On Heavens Door
acordes
Knocking On Heavens Door (ver 2)
acordes
Knocking On Heavens Door
tablatura
Knocking On Heavens Door
bajo
Descubre más canciones de Guns N´ Roses