Knocking On Heavens Door, Guns N´ Roses (acordes) (ver 2)

Autor: slash757 | 33172 visualizaciones

amcddogmire
El intro se los dejo abajo.

G        D                   Am         
  Mama take this badge from me
G          D           C
  i can´t use it anymore
G               D                Am
  it´s getting dark too dark to see
G                D                   C
  feels like im knocking on heavens door.

 G              D                 C
Knock-knock-knocking on heavens door
 G              D                 C
Knock-knock-knocking on heavens door
 G              D                 C 
Knock-knock-knocking on heavens door
 G              D                 C
Knock-knock-knocking on heavens door

SOLO CON BASE EN G D C

TODA ESTA PARTE SE TOCA CON G D C

Mama put my guns in the ground
i can´t shoot them anymore
that cold blak cloud is coming down
feels like im knocking on heavens door


 G              D                 C
Knock-knock-knocking on heavens door
 G              D                 C
Knock-knock-knocking on heavens door
 G              D                 C 
Knock-knock-knocking on heavens door
 G              D                 C
Knock-knock-knocking on heavens door

G D C


 G              D                 C
Knock-knock-knocking on heavens door
G        D       C
Hey,hey,hey,hey,hey
 G              D                 C
Knock-knock-knocking on heavens door
 G              D                 C 
Knock-knock-knocking on heavens door
 G              D                 C
Knock-knock-knocking on heavens door

Intro:



   G         D               C        
e|-3-3-------------2-0---------------------0---------------------|
B|-3---3---------3-----3---3---------1-------1---1---------------|
G|-0-----0-----2---------2---0---------0-------0---0-------------|
D|-0-------0-0---------------0h2---2-----2-----------0h2p0---0---|
A|-2-----------------------------3-------------------------3-----|
E|-3-------------------------------------------------------------|
   G         D             C
e|---3-------------2-0-----------------0-----------------|
B|-----3---------3-----3---------1-----------------------|
G|-0-----0-----2---------2-0-------0-----0---0-----------|
D|-0-------0-0-------------0h2-------2-----2---0h2p0---0-|
A|-2---------------------------3---------------------3---|
E|-3-----------------------------------------------------|

     G       D       C
G|---4---|---7---|---5---|---5---|
D|---5---|---7---|---5---|---5---|
A|---5---|---5---|---3---|---3---|
E|---3---|-------|-------|-------|

Espero que les guste.

Fuente:cancioneros Do Re Mi

Comentarios del colaborador: Fuente: cancioneros DO RE MI

Calificar esta versión:
Aviso: Este fichero es trabajo propio de su transcriptor y representa su interpretación personal de la canción. El material contenido en esta página es para exclusivo uso privado, por lo que se prohibe su reproducción o retransmisión, así como su uso para fines comerciales.
Más versiones de Knocking On Heavens Door, Guns N´ Roses
Knocking On Heavens Door
acordes
Knocking On Heavens Door (ver 2)
acordes
Knocking On Heavens Door
tablatura
Knocking On Heavens Door
bajo
Descubre más canciones de Guns N´ Roses